Sound will begin in 5 seconds

johnnys unseen

01234567891011121314151617181920212223
E
B
G
D
A
E
B
0 1 2 3 4 5 6 7 8 9 10 11 12 13 14 15 16 17 18 19 20 21 22 23
Song Science #1: How Pros Use 6 Chords to Write Hit Songs
(/) Slide Up  (\) Slide Down  (h) Hammer On  (p) Pull Off  (b) Bend (r) Release (v) Vibrato

Stave 1:

E|--_------------------------------------------------
B|--_------------------------------------------------
G|--11-----11-----9-----9-----7-----7-----6-----6-----
D|--_--9------9-----7-----7-----4-----4-----5-----5--
A|--_-----9------------7-----------4-----------5-----
E|--9-------------7-----------4-----------5-----------

Stave 2:

E|------------------------------------------------------------------------------------------------------5--7--
B|------------10p0------7h8----------------------10p0------7h8-----7\5/7p0------------10p0------7h8-----5--7--
G|-----11-----------11-------9--7\4/7-----11-----------11-------9--------------11-----------11-------9--------
D|---------9----------------------------------9------------------------------------9--------------------------
A|------------------------------------------------------------------------------------------------------------
E|--0----------------------------------0------------------------------------0---------------------------------

Stave 3:

E|----10--------------
B|--7--12--------------
G|--7--11--7--6--4--7--
D|--7------0--0--0--7--
A|--5------9--7--5--5--
E|--0------9--7--5--5--

http://www.guitartabcreator.com
Guitar Tab Creator is intended to store guitar tab created through the tool. It currently does not support in-line text editing. Any text you place in here will be lost. If you need to comment on your tab, please use the "Tab Notes" section located below.