Rain Down [D] - Delirious

Chords

01234567891011121314151617181920212223
E
B
G
D
A
E
B
0 1 2 3 4 5 6 7 8 9 10 11 12 13 14 15 16 17 18 19 20 21 22 23
INTRO
G|----------------|----------------|----------------|----------------|
D|----------------|------------5-5-|----------------|------------5-5-|
A|5-5-5-5-5-5-5-5-|5-5-5-5-5-5-----|5-5-5-5-5-5-5-5-|5-5-5-5-5-5-----|
E|----------------|----------------|----------------|----------------|
B|----------------|----------------|----------------|----------------|

G|----------------|----------------|----------------|----------------|
D|----------------|----------------|----------------|----------------|
A|----------------|----------------|----------------|----------------|
E|3-3-3-3-3-3-3-2-|3-3-3-3-3-3-3-2-|3-3-3-3-3-3-3-2-|3-3-3-3-3-3-3-2-|
B|----------------|----------------|----------------|----------------|


VERSE 1
Looks like tonight
G|----------------|----------------|----------------|----------------|
D|----------------|----------------|----------------|----------------|
A|--2-0-2---------|--5-5-5---------|----------------|----------------|
E|----------------|----------------|---3-0-3-3------|----------------|
B|--------3-------|---------3------|----------------|---3-5-5-3------|

Feels like the winds
G|----------------|----------------|----------------|----------------|
D|----------------|----------------|----------------|----------------|
A|--2-0-2---------|--5-5-5---------|----------------|----------------|
E|----------------|----------------|---3-2-3-3------|----------------|
B|--------3-------|---------3------|----------------|---3-5-5-3------|

Beneath my feet
G|----------------|----------------|----------------|----------------|
D|----------------|----------------|----------------|----------------|
A|--2-0-2---------|--5-5-5---------|----------------|----------------|
E|----------------|----------------|---3-0-3-3------|----------------|
B|--------3-------|---------3------|----------------|---3-5-5-3------|

I know it's time
G|----------------|----------------|----------------|----------------|
D|----------------|----------------|----------------|----------------|
A|--2-0-2---------|--5-5-5---------|----------------|----------------|
E|----------------|----------------|---3-2-3-3------|----------------|
B|--------3-------|---------3------|----------------|---3-5-5-3------|


PRE-CHORUS
It's gonna rain
G|----------------|----------------|----------------|----------------|
D|----------------|----------------|----------------|----------------|
A|--------4-4-4-4-|5-5-5-5-7-7-7-7-|--------4-4-4-4-|5-5-5-5-7-7-7-7-|
E|----------------|----------------|----------------|----------------|
B|3-3-3-3---------|----------------|3-3-3-3---------|----------------|

Cause it's living water
G|----------------|----------------|----------------|----------------|
D|----------------|----------------|----------------|----------------|
A|--------4-4-4-4-|5-5-5-5-7-7-7-7-|--------4-4-4-4-|5-5-5-5-7-7-7-7-|
E|3-3-3-3---------|----------------|3-3-3-3---------|----------------|
B|----------------|----------------|----------------|----------------|


CHORUS
Rain down, all around the world
G|----------------|----------------|----------------|----------------|
D|----------------|----------------|----------------|7-7-5-5-4-4-2-2-|
A|5-5-5-5-5-5-5-4-|5-5-5-5-5-5-5-4-|5-5-5-5-5-5-5-4-|----------------|
E|----------------|----------------|----------------|----------------|
B|----------------|----------------|----------------|----------------|

Rain Down, can you the earth
G|----------------|----------------|----------------|----------------|
D|----------------|----------------|----------------|----------------|
A|----------------|----------------|----------------|----0-0-2-2-4-4-|
E|3-3-3-3-3-3-3-2-|3-3-3-3-3-3-3-2-|3-3-3-3-3-3-3-2-|3-3-------------|
B|----------------|----------------|----------------|----------------|

Rain down, my heart is dry
G|----------------|----------------|----------------|----------------|
D|----------------|----------------|----------------|7-7-5-5-4-4-2-2-|
A|5-5-5-5-5-5-5-4-|5-5-5-5-5-5-5-4-|5-5-5-5-5-5-5-4-|----------------|
E|----------------|----------------|----------------|----------------|
B|----------------|----------------|----------------|----------------|

Rain Down,
G|----------------|----------------|----------------|----------------|
D|----------------|----------------|----------------|----------------|
A|----------------|----------------|----------------|----0-0-2-2-4-4-|
E|3-3-3-3-3-3-3-2-|3-3-3-3-3-3-3-2-|3-3-3-3-3-3-3-2-|3-3-------------|
B|----------------|----------------|----------------|----------------|


VERSE 2
Back to the start
G|----------------|----------------|----------------|----------------|
D|----------------|----------------|----------------|----------------|
A|--2-0-2---------|--5-5-5---------|----------------|----------------|
E|----------------|----------------|---3-0-3-3------|----------------|
B|--------3-------|---------3------|----------------|---3-5-5-3------|

Feels like it's time
G|----------------|----------------|----------------|----------------|
D|----------------|----------------|----------------|----------------|
A|--2-0-2---------|--5-5-5---------|----------------|----------------|
E|----------------|----------------|---3-2-3-3------|----------------|
B|--------3-------|---------3------|----------------|---3-5-5-3------|

I see the clouds
G|----------------|----------------|----------------|----------------|
D|----------------|----------------|----------------|----------------|
A|--2-0-2---------|--5-5-5---------|----------------|----------------|
E|----------------|----------------|---3-0-3-3------|----------------|
B|--------3-------|---------3------|----------------|---3-5-5-3------|

To dance the song
G|----------------|----------------|----------------|----------------|
D|----------------|----------------|----------------|----------------|
A|--2-0-2---------|--5-5-5---------|----------------|----------------|
E|----------------|----------------|---3-2-3-3------|----------------|
B|--------3-------|---------3------|----------------|---3-5-5-3------|


PRE-CHORUS
Hope in my hands
G|----------------|----------------|----------------|----------------|
D|----------------|----------------|----------------|----------------|
A|--------4-4-4-4-|5-5-5-5-7-7-7-7-|--------4-4-4-4-|5-5-5-5-7-7-7-7-|
E|----------------|----------------|----------------|----------------|
B|3-3-3-3---------|----------------|3-3-3-3---------|----------------|

Cause it's living water
G|----------------|----------------|----------------|----------------|
D|----------------|----------------|----------------|----------------|
A|--------4-4-4-4-|5-5-5-5-7-7-7-7-|--------4-4-4-4-|5-5-5-5-7-7-7-7-|
E|3-3-3-3---------|----------------|3-3-3-3---------|----------------|
B|----------------|----------------|----------------|----------------|


CHORUS
Rain down, all around the world
G|----------------|----------------|----------------|----------------|
D|----------------|----------------|----------------|7-7-5-5-4-4-2-2-|
A|5-5-5-5-5-5-5-4-|5-5-5-5-5-5-5-4-|5-5-5-5-5-5-5-4-|----------------|
E|----------------|----------------|----------------|----------------|
B|----------------|----------------|----------------|----------------|

Rain Down, can you the earth
G|----------------|----------------|----------------|----------------|
D|----------------|----------------|----------------|----------------|
A|----------------|----------------|----------------|----0-0-2-2-4-4-|
E|3-3-3-3-3-3-3-2-|3-3-3-3-3-3-3-2-|3-3-3-3-3-3-3-2-|3-3-------------|
B|----------------|----------------|----------------|----------------|

Rain down, my heart is dry
G|----------------|----------------|----------------|----------------|
D|----------------|----------------|----------------|7-7-5-5-4-4-2-2-|
A|5-5-5-5-5-5-5-4-|5-5-5-5-5-5-5-4-|5-5-5-5-5-5-5-4-|----------------|
E|----------------|----------------|----------------|----------------|
B|----------------|----------------|----------------|----------------|

Rain Down,
G|----------------|----------------|----------------|----------------|
D|----------------|----------------|----------------|----------------|
A|----------------|----------------|----------------|----0-0-2-2-4-4-|
E|3-3-3-3-3-3-3-2-|3-3-3-3-3-3-3-2-|3-3-3-3-3-3-3-2-|3-3-------------|
B|----------------|----------------|----------------|----------------|
[[],[],[],[],[],[]]

Member for

7 years 7 months
Submitted by mondorondo on Thu, 2012-11-15 01:17