Sound will begin in 5 seconds

Improvisation G

01234567891011121314151617181920212223
E
B
G
D
A
E
B
0 1 2 3 4 5 6 7 8 9 10 11 12 13 14 15 16 17 18 19 20 21 22 23
Song Science #1: How Pros Use 6 Chords to Write Hit Songs
(/) Slide Up  (\) Slide Down  (h) Hammer On  (p) Pull Off  (b) Bend (r) Release (v) Vibrato

Stave 1:

E|---------------------7--10--7-----------
B|---------------7--8------------8--7-----
G|------------7------------------------7--
D|---------9------------------------------
A|--9--10---------------------------------
E|----------------------------------------

Stave 2:

E|----------------------------10------------------
B|------------------------12------12--------------
G|----------------11--12--------------12--11------
D|---------9--12------------------------------12--
A|--9--10-----------------------------------------
E|------------------------------------------------

Stave 3:

E|------------------------------10------------------
B|--------------------------12------12--------------
G|------------------11--12--------------12--11------
D|--------------12------------------------------12--
A|------10--14--------------------------------------
E|--10----------------------------------------------

Stave 4:

E|----------------------14--------------------------
B|--------------12--15------15--12------------------
G|----------14----------------------14--12----------
D|--12--16----------------------------------12------
A|----------------------------------------------14--
E|--------------------------------------------------

Stave 5:

E|-----------------2--------------------
B|--------------3--------3--------------
G|--------2--4--------4-----2-----------
D|-----4-----------------------5--------
A|--5-----------------------------5--2--
E|--------------------------------------

Stave 6:

E|--------------------------------------
B|-----------------7--------------------
G|-----------4--7-----4--7--------------
D|-----4--7-----------------7--5--------
A|--5-----------------------------5-----
E|-----------------------------------7--

Stave 7:

E|--------------------------------------
B|-----------------7--------------------
G|--------------7--------7--------------
D|--------7--9--------9-----7--5--------
A|--5--9--------------------------5-----
E|-----------------------------------7--

http://www.guitartabcreator.com
Guitar Tab Creator is intended to store guitar tab created through the tool. It currently does not support in-line text editing. Any text you place in here will be lost. If you need to comment on your tab, please use the "Tab Notes" section located below.