Sound will begin in 5 seconds

さよならベル

Chords
01234567891011121314151617181920212223
E
B
G
D
A
E
B
0 1 2 3 4 5 6 7 8 9 10 11 12 13 14 15 16 17 18 19 20 21 22 23
Song Science #1: How Pros Use 6 Chords to Write Hit Songs
(/) Slide Up  (\) Slide Down  (h) Hammer On  (p) Pull Off  (b) Bend (r) Release (v) Vibrato

Stave 1:

E|--10--11--10----------------------------------10--11-----------------------------------------------
B|--------------11-----------------x--11h13p11----------11v-----13--11--13/16--16b18r16--13--13--16--
G|------------------12-------------------------------------------------------------------------------
D|----------------------13--12h13--------------------------------------------------------------------
A|---------------------------------------------------------------------------------------------------
E|---------------------------------------------------------------------------------------------------

Stave 2:

E|--16--15--15--15--13--13--13----------------------------------13------11------10------11----------------------13------
B|------------------------------16--15------15--16\----------------------------------------------15--13--15b16------16--
G|--------------------------------------12--------------12--15------12------12------12----------------------------------
D|-------------------------------------------------/13--------------------------------------13v-------------------------
A|----------------------------------------------------------------------------------------------------------------------
E|----------------------------------------------------------------------------------------------------------------------

Stave 3:

E|------------------------------|--
B|--11--11--11--11--11--11--11--|--
G|--11--11--11--11--11--11--11--|--
D|--10--10--10--10--10--10--9---|--
A|--9---9---9---9---9---9---9---|--
E|------------------------------|--

http://www.guitartabcreator.com
Guitar Tab Creator is intended to store guitar tab created through the tool. It currently does not support in-line text editing. Any text you place in here will be lost. If you need to comment on your tab, please use the "Tab Notes" section located below.