Sound will begin in 5 seconds

Variations on Cochise

01234567891011121314151617181920212223
E
B
G
D
A
E
B
0 1 2 3 4 5 6 7 8 9 10 11 12 13 14 15 16 17 18 19 20 21 22 23
(/) Slide Up  (\) Slide Down  (h) Hammer On  (p) Pull Off  (b) Bend (r) Release (v) Vibrato

Riff #1

E|--------------------------------------------------------------------------------------------------
B|--------------------------------------------------------------------------------------------------
G|--------------------------------------------------------------------------------------------------
D|--------------------------------------------------------------------------------------------------
A|--7--5--7--5--2--0-----------0-----2-----5-----7-----5--2--0--------------------------------------
E|--------------------0-----------------------------------------3--0--3--------0--------------------

Riff #1 (continued with slightly different ending)

E|--------------------------------------------------------------------------------------------------
B|--------------------------------------------------------------------------------------------------
G|--------------------------------------------------------------------------------------------------
D|--------------------------------------------------------------------------------------------------
A|--7--5--7--5--2--0-----------0-----2-----5-----7-----5--2--0-----------------0--------------------
E|--------------------0-----------------------------------------3--0--3--------------0--------------

Riff #1 (with end notes leading into Riff #2)

E|--------------------------------------------------------------------------------------------------------
B|--------------------------------------------------------------------------------------------------------
G|--------------------------------------------------------------------------------------------------------
D|--------------------------------------------------------------------------------------------------------
A|--7--5--7--5--2--0-----------0-----2-----5-----7-----5--2--0-----------------0-----------------3--------
E|--------------------0-----------------------------------------3--0--3--------------0-----0--------------

Riff #2

E|--------------------------------------------------------------------------------------------------
B|--------------------------------------------------------------------------------------------------
G|--------------------------------------------------------------------------------------------------
D|--------------------------------------------------------------------------------------------------
A|--0-----------3-----0--3--0--3-----5-----7--------------7--5--7--5--3-----5-----3-----------------
E|--------------------------------------------------------------------------------------3-----3-----

Riff #2 (last time with ending leading back to the Riff #1 variation below)

E|--------------------------------------------------------------------------------------------------
B|--------------------------------------------------------------------------------------------------
G|--------------------------------------------------------------------------------------------------
D|--------------------------------------------------------------------------------------------------
A|--0-----------3-----0--3--0--3-----5-----7--------------7--5--7--5--3-----5-----3-----------------
E|--------------------------------------------------------------------------------------3-----5-----

Riff #1 (Coming Back in After Riff #2)

E|-----------------------------------------------------------------------------------------------
B|-----------------------------------------------------------------------------------------------
G|-----------------------------------------------------------------------------------------------
D|-----------------------------------------------------------------------------------------------
A|--3--5--7--5--2--0-----------0-----2-----5-----7-----5--2--0-----------------0-----------------
E|--------------------0-----------------------------------------3--0--3--------------0-----------

http://www.guitartabcreator.com
Guitar Tab Creator is intended to store guitar tab created through the tool. It currently does not support in-line text editing. Any text you place in here will be lost. If you need to comment on your tab, please use the "Tab Notes" section located below.