The Cost of a Bullet

Chords

01234567891011121314151617181920212223
E
B
G
D
A
E
B
0 1 2 3 4 5 6 7 8 9 10 11 12 13 14 15 16 17 18 19 20 21 22 23
(/) Slide Up  (\) Slide Down  (h) Hammer On  (p) Pull Off  (b) Bend (r) Release (v) Vibrato

Verse

E|--------------------------------------------------------------------------------------------------------
B|--------------------------------------------------------------------------------------------------------
G|--------------------------------------------------------------------------------------------------------
D|--------------5--5-----5-----------5--------------------------------------------------------------------
A|--0-----0--0--------7--------7--7--------7--7-----5-----5--5--5--5--5--7-----5-----------5--------------
E|-----------------------------------------------8-----------------------------------8-----------8--------

Verse (continued - entire verse repeated 2x before moving to bridge)

E|--------------------------------------------------------------------------------------------------------
B|--------------------------------------------------------------------------------------------------------
G|--------------------------------------------------------------------------------------------------------
D|--------------5--5-----5-----------5--------------------------------------------------------------------
A|--0-----0--0--------7--------7--7--------7--7-----5-----5--5--5--5--5--3-----3--3-----------------------
E|-----------------------------------------------8-----------------------------------3-----3--3-----------

Bridge (2x)

E|--------------------------------------------------
B|--------------------------------------------------
G|--------------------------------------------------
D|--------------------------------------------------
A|-----------------------3-----3--3-----------------
E|--5-----5--5--5--5--5--------------3-----3--3-----

Bridge (3rd time with quick open E note leading into pre-chorus)

E|-----------------------------------------------------
B|-----------------------------------------------------
G|-----------------------------------------------------
D|-----------------------------------------------------
A|-----------------------3-----3--3--------------------
E|--5-----5--5--5--5--5--------------3-----3--3--0-----

Pre-Chorus (build up to chorus)

E|-----------------------------------------------------------------------------------------
B|-----------------------------------------------------------------------------------------
G|-----------------------------------------------------------------------------------------
D|-----------------------------------------------------------------------------------------
A|--------------------------2--2--2--2--2--2--2--2--2--2--2--2--2--2--2--2-----------------
E|--0-----0--0--0--0--0--0-----------------------------------------------------------------

Chorus (2x)

E|--------------------------------------------------------------------------------------------------------
B|--------------------------------------------------------------------------------------------------------
G|--------------------------------------------------------------------------------------------------------
D|--------------------------------------------------------------------------------------------------------
A|--3-----3-----3-----3-----3-----3-----3--3--3--2-----2-----0--0--2-----2-----2--0-----0-----------------
E|-----------------------------------------------------------------------------------3--------------------

Chorus (continued after 2x above)

E|--------------------------------------------------------------------------------------------------
B|--------------------------------------------------------------------------------------------------
G|--------------------------------------------------------------------------------------------------
D|--------------------------------------------------------------------------------------------------
A|--3-----3--3--2-----2--2--3-----3--3--2-----2--2--3-----2-----3-----2-----3-----2-----3-----------
E|--------------------------------------------------------------------------------------------3-----

							http://www.guitartabcreator.com
Instruments
{"title":"The Cost of a Bullet","strings":[[["_",".","_","_","_","_","_","_",".","_",".","_","_","_","_","_",".","_",".",".","_","_","_",".","_",".","_",".","_","_","_",".","_","_"],["_",".","_","_","_","_","_","_",".","_",".","_","_","_","_","_",".","_",".",".","_","_","_",".","_",".","_",".","_","_","_",".","_","_"],["_",".","_","_","_","_","_","_",".","_",".","_","_","_","_","_",".","_",".",".","_","_","_",".","_",".","_",".","_","_","_",".","_","_"],["_",".","_","_",5,5,"_",5,".","_",".",5,"_","_","_","_",".","_",".",".","_","_","_",".","_",".","_",".","_","_","_",".","_","_"],[0,".",0,0,"_","_",7,"_",".",7,7,"_","_",7,7,"_",5,"_",5,5,5,5,5,7,"_",5,"_",".","_",5,"_",".","_","_"],["_",".","_","_","_","_","_","_",".","_",".","_","_","_","_",8,".","_",".",".","_","_","_",".","_",".","_",8,"_","_","_",8,"_","_"]],[["_",".","_","_","_","_","_","_",".","_",".","_","_","_","_","_",".","_",".",".","_","_","_","_",".","_","_",".",".",".",".",".",".","."],["_",".","_","_","_","_","_","_",".","_",".","_","_","_","_","_",".","_",".",".","_","_","_","_",".","_","_",".",".",".",".",".",".","."],["_",".","_","_","_","_","_","_",".","_",".","_","_","_","_","_",".","_",".",".","_","_","_","_",".","_","_",".",".",".",".",".",".","."],["_",".","_","_",5,5,"_",5,".","_",".",5,"_","_","_","_",".","_",".",".","_","_","_","_",".","_","_",".",".",".",".",".",".","."],[0,".",0,0,"_","_",7,"_",".",7,7,"_","_",7,7,"_",5,"_",5,5,5,5,5,3,".",3,3,".",".",".",".",".",".","."],["_",".","_","_","_","_","_","_",".","_",".","_","_","_","_",8,".","_",".",".","_","_","_","_",".","_","_",3,".",3,3,".",".","."]],[["_","_","_","_","_","_","_","_","_",".","_","_","_","_","_","."],["_","_","_","_","_","_","_","_","_",".","_","_","_","_","_","."],["_","_","_","_","_","_","_","_","_",".","_","_","_","_","_","."],["_","_","_","_","_","_","_","_","_",".","_","_","_","_","_","."],["_","_","_","_","_","_","_",3,"_",3,3,"_","_","_","_","."],[5,"_",5,5,5,5,5,"_","_",".","_",3,"_",3,3,"."]],[["_","_","_","_","_","_","_","_","_",".","_","_","_","_","_",".","."],["_","_","_","_","_","_","_","_","_",".","_","_","_","_","_",".","."],["_","_","_","_","_","_","_","_","_",".","_","_","_","_","_",".","."],["_","_","_","_","_","_","_","_","_",".","_","_","_","_","_",".","."],["_","_","_","_","_","_","_",3,"_",3,3,"_","_","_","_",".","."],[5,"_",5,5,5,5,5,"_","_",".","_",3,"_",3,3,0,"."]],[["_",".","_","_","_","_","_","_",".",".",".",".",".",".",".",".",".",".",".",".",".",".",".",".",".",".",".",".","."],["_",".","_","_","_","_","_","_",".",".",".",".",".",".",".",".",".",".",".",".",".",".",".",".",".",".",".",".","."],["_",".","_","_","_","_","_","_",".",".",".",".",".",".",".",".",".",".",".",".",".",".",".",".",".",".",".",".","."],["_",".","_","_","_","_","_","_",".",".",".",".",".",".",".",".",".",".",".",".",".",".",".",".",".",".",".",".","."],["_",".","_","_","_","_","_","_",2,2,2,2,2,2,2,2,2,2,2,2,2,2,2,2,".",".",".",".","."],[0,".",0,0,0,0,0,0,".",".",".",".",".",".",".",".",".",".",".",".",".",".",".",".",".",".",".",".","."]],[["_",".",".",".",".",".",".",".",".",".",".",".",".",".",".",".","_",".",".",".",".",".",".",".",".",".",".",".",".",".",".",".",".","."],["_",".",".",".",".",".",".",".",".",".",".",".",".",".",".",".","_",".",".",".",".",".",".",".",".",".",".",".",".",".",".",".",".","."],["_",".",".",".",".",".",".",".",".",".",".",".",".",".",".",".","_",".",".",".",".",".",".",".",".",".",".",".",".",".",".",".",".","."],["_",".",".",".",".",".",".",".",".",".",".",".",".",".",".",".","_",".",".",".",".",".",".",".",".",".",".",".",".",".",".",".",".","."],[3,".",3,".",3,".",3,".",3,".",3,".",3,3,3,2,"_",2,".",0,0,2,".",2,".",2,0,".",0,".",".",".",".","."],["_",".",".",".",".",".",".",".",".",".",".",".",".",".",".",".","_",".",".",".",".",".",".",".",".",".",".",3,".",".",".",".",".","."]],[["_",".",".",".",".",".",".",".",".",".",".",".",".",".",".",".","_",".",".",".",".",".",".",".",".",".",".",".",".",".",".","."],["_",".",".",".",".",".",".",".",".",".",".",".",".",".",".",".","_",".",".",".",".",".",".",".",".",".",".",".",".",".",".","."],["_",".",".",".",".",".",".",".",".",".",".",".",".",".",".",".","_",".",".",".",".",".",".",".",".",".",".",".",".",".",".","."],["_",".",".",".",".",".",".",".",".",".",".",".",".",".",".",".","_",".",".",".",".",".",".",".",".",".",".",".",".",".",".","."],[3,".",3,3,2,".",2,2,3,".",3,3,2,".",2,2,3,".",2,".",3,".",2,".",3,".",2,".",3,".",".","."],["_",".",".",".",".",".",".",".",".",".",".",".",".",".",".",".","_",".",".",".",".",".",".",".",".",".",".",".",".",".",3,"."]]],"numberofstrings":6,"notes":["E","B","G","D","A","E","B"],"capo":0,"stringnotes":["E4","B3","G3","D3","A2","E2"],"comments":["Verse","Verse (continued - entire verse repeated 2x before moving to bridge)","Bridge (2x)","Bridge (3rd time with quick open E note leading into pre-chorus)","Pre-Chorus (build up to chorus)","Chorus (2x)","Chorus (continued after 2x above)","Stave 8:","Stave 9:","Stave 10:","Stave 11:","Stave 12:","Stave 13:"],"timing":[[null,"W",null,null,null,null,null,null,null,null,null,null,null,null,null,null,null,null,null,null,null,null,null,null,null,null,null,null,null,null,null,null,"W","W","W","W","W","W","W","W","W","W","W","W","W"],[null,null,null,null,null,null,null,null,null,null,null,null,null,null,null,null,null,null,null,null,null,null,null,null,null,null,null,null,null,null,null,null,null,null,null,"W","W","W"],[null,null,null,null,null,null,null,null,null,null,null,null,null,null,null,null,"W","W",null,null,"W","W","W"],[],[null,null,null,null,null,null,null,null,null,null,null,null,null,null,null,null,null,null,null,null,null,"W","W","W","W","W","W","W","W","W",null,null,null,null,"W","W","W","W"],[null,"W",null,"W","W","W",null,"W","W","W",null,"W","W","W",null,"W","W","W",null,"W",null,"W",null,null,"W","W",null,"W",null,"W",null,"W",null,"W"],[null,null,null,null,null,null,null,null,null,null,null,null,null,null,null,null,null,"W"],[null,"W",null,null,null,null,null,null,null,null,null,null,null,null,null,null,null,null,null,null,null,"W"],[null,"W",null,null,null,null,null,null,null,null,null,null,null,null,null,null,null,null,null,null,null,null,null,null,null,null,null,null,null,null,null,null,null,null,"W"],[null,null,null,null,null,null,null,null,null,null,null,null,null,null,null,null,null,null,null,null,null,null,null,null,null,null,null,null,null,null,null,null,"W"],[],[],[]],"timingvisible":false,"tabcounter":32,"stave":6,"totalstaves":7,"instrument":"6guitar","selectedtuning":"6_standard","version":"13"}

Member for

1 year 2 months
Submitted by modfic on Sat, 2019-08-31 07:37