Sound will begin in 5 seconds

Chahun Main Ya Naa (Bass Guitar)

01234567891011121314151617181920212223
E
B
G
D
A
E
B
0 1 2 3 4 5 6 7 8 9 10 11 12 13 14 15 16 17 18 19 20 21 22 23
Song Science #1: How Pros Use 6 Chords to Write Hit Songs
(/) Slide Up  (\) Slide Down  (h) Hammer On  (p) Pull Off  (b) Bend (r) Release (v) Vibrato

(W|WW) Whole (H|HH) Half (Q|QQ) Quarter (E|EE) 8th (S|SS) 16th (T|TT) 32nd (X|XX) 64th

Stave 1:
t: W W W W W W W W
E|-----------------------------------------------------
B|-----------------------------------------------------
G|-----------------------------------------------------
D|-----------------------------------------------------
A|-----------------------------------------------------
E|-----5-----5-----1-----3-----5-----5-----1-----3-----

Stave 2:
t: H H H E E E E E W W
E|-----------------------------------------------------------------
B|-----------------------------------------------------------------
G|-----------------------------------------------------------------
D|-----------------------------------------------------------------
A|-----------------------3-----2-----0-----------------------------
E|-----5-----1-----3-----------------------3-----3-----1-----3-----

Stave 3:
t: W W W W W W W W
E|-----------------------------------------------------
B|-----------------------------------------------------
G|-----------------------------------------------------
D|-----------------------------------------------------
A|-----------------------------------------------------
E|-----5-----3-----1-----3-----5-----3-----1-----3-----

Stave 4:
t: W W W H H W W W H H
E|-----------------------------------------------------------------
B|-----------------------------------------------------------------
G|-----------------------------------------------------------------
D|-----------------------------------------------------------------
A|-----------------------------------------------------------------
E|-----5-----3-----1-----3-----0-----5-----3-----1-----3-----0-----

Stave 5:
t: W W W W W W W W W W W W W W W W
E|-----------------------------------------------------------------------------------------------------
B|-----------------------------------------------------------------------------------------------------
G|-----------------------------------------------------------------------------------------------------
D|-----------------------------------------------------------------------------------------------------
A|-----3-----0-----------------------------3-----------------------------------------------------------
E|-----------------1-----3-----5-----1-----------3-----5-----3-----1-----3-----5-----3-----1-----3-----

Stave 6:
t: W H H W H H
E|-----------------------------------------
B|-----------------------------------------
G|-----------------------------------------
D|-----------------------------------------
A|-----------------3-----------------------
E|-----5-----3-----------5-----3-----0-----

Stave 7:
t: W W W W W W W W W W W W W W
E|-----------------------------------------------------------------------------------------
B|-----------------------------------------------------------------------------------------
G|-----------------------------------------------------------------------------------------
D|-----------------------------------------------------------------------------------------
A|-----------3-----------------------------------------3-----------3-----------------3-----
E|-----5-----------3-----0-----5-----1-----3-----0-----------5-----------3-----0-----------

Stave 8:
t: W W W W W W W S W W W W W W W W
E|----------------------------------------------------------------------------------------------------
B|----------------------------------------------------------------------------------------------------
G|----------------------------------------------------------------------------------------------------
D|----------------------------------------------------------------------------------------------------
A|-----3-----3-----------------------------3-----3----------3-----3-----------------------------3-----
E|-----------------0-----0-----1-----3----------------------------------0-----0-----1-----3-----------

Stave 9:
t: W W W H H W W W H H W W W W W W W W
E|-----------------------------------------------------------------------------------------------------------------
B|-----------------------------------------------------------------------------------------------------------------
G|-----------------------------------------------------------------------------------------------------------------
D|-----------------------------------------------------------------------------------------------------------------
A|-----------------------------------------------------------------------------------------------------------------
E|-----5-----3-----1-----3-----0-----5-----3-----1-----3-----0-----5-----3-----1-----3-----5-----3-----1-----3-----

Stave 10:
t: W W W W W W W W W undefined
E|----------------------------------------------------------------
B|----------------------------------------------------------------
G|----------------------------------------------------------------
D|----------------------------------------------------------------
A|----------------------------------------------------------------
E|-----5-----5-----1-----3-----5-----5-----1-----3-----5----------

http://www.guitartabcreator.com
Guitar Tab Creator is intended to store guitar tab created through the tool. It currently does not support in-line text editing. Any text you place in here will be lost. If you need to comment on your tab, please use the "Tab Notes" section located below.