Sound will begin in 5 seconds

Music Performance 4

01234567891011121314151617181920212223
E
B
G
D
A
E
B
0 1 2 3 4 5 6 7 8 9 10 11 12 13 14 15 16 17 18 19 20 21 22 23
Song Science #1: How Pros Use 6 Chords to Write Hit Songs
(/) Slide Up  (\) Slide Down  (h) Hammer On  (p) Pull Off  (b) Bend (r) Release (v) Vibrato

Stave 1:

E|------------------------------------------------------------------------------------------
B|------------------------------------------------------------------------------------------
G|------------------------------------------------------------------------------------------
D|------------------------------------------------------------------------------------------
A|------------------------------------------------------------------------------------------
E|-0h15-----15-15-15-15-15-15-0h15---15-0h15---0h15-----15-15-15-15-15-15-0h15--15-15-15-15-

Stave 2:

E|---------------------------------------------------------------------------
B|---------------------------------------------------------------------------
G|-0-----------------------0------0---0-----------------------0--------------
D|-0-----------------------0------0---0-----------------------0--------------
A|-0-----------------------0------0---0-----------------------0--------------
E|-0-----15-15-15-15-15-15-0---15-0---0-----15-15-15-15-15-15-0--15-15-15-15-

Stave 3:

E|---------------
B|---------------
G|-0-------------
D|-0-------------
A|-0-------------
E|-0-15-15-15-15-

Stave 4:

E|-----------------------------------------------------------------
B|-----------------------------------------------------------------
G|-----------------------------------------------------------------
D|-----------------------------------------------------------------
A|-0-0-0-0-0-0-0-0-7-7-7-7-7-7-7-7-5-5-5-5-5-5-5-5-3-3-3-3-3-3-3-3-
E|-0-0-0-0-0-0-0-0-7-7-7-7-7-7-7-7-5-5-5-5-5-5-5-5-3-3-3-3-3-3-3-3-

Stave 5:

E|------------------------------------------------------------------
B|------------------------------------------------------------------
G|------------------------------------------------------------------
D|------------------------------------------------------------------
A|-0-0-0-0-0-0-0-0-7-7-7-7-7-7-7-7-8-8-8-8-8-8-8-8-3-2-2-2-2-2-2----
E|-0-0-0-0-0-0-0-0-7-7-7-7-7-7-7-7-8-8-8-8-8-8-8-8-3-2-2-2-2-2-2----

Stave 6:

E|--------------------------------------------------------------
B|----------6-6-6---------6-6-6---------------------------------
G|----------7-7-7---------7-7-7---------------------------------
D|--------------------------------------------------------------
A|--------------------------------------5-5-5-5---------4-4-4-4-
E|-0-0-0-0--------0-0-0-0-------3-3-3-3---------2-2-2-2---------

Stave 7:

E|-------------------------------------------------------------------
B|-------------------------------------------------------------------
G|-------------------------------------------------------------1-1b--
D|-------------------------------------------------------------------
A|---0-0-0-0-0-0-0-0-7-7-7-7-7-7-7-7-8-8-8-8-8-8-8-8-2-2-2-2-2-------
E|---0-0-0-0-0-0-0-0-7-7-7-7-7-7-7-7-8-8-8-8-8-8-8-8-2-2-2-2-2-------

Stave 8:

E|-------------------------------------------------------------------
B|-------------------------------------------------------------------
G|-------------------------------------------------------------------
D|-------------------------------------------------------------------
A|-0-0-0-0-0-0-0-0-7-7-7-7-7-7-7-7-5-5-5-5-5-5-5-5-3-3-3-3-3-3-3-3---
E|-0-0-0-0-0-0-0-0-7-7-7-7-7-7-7-7-5-5-5-5-5-5-5-5-3-3-3-3-3-3-3-3---

Stave 9:

E|---------------------------------
B|---------------------------------
G|---------------------------------
D|-------------3-3-------------5-5-
A|---------5-5-------------4-4-----
E|-3-3-3-3---------2-2-2-2---------

Stave 10:

E|-------------------------------------------------------------------
B|----------6-6-6----------6-6-6-------------------------------------
G|----------7-7-7----------7-7-7-------------------------------------
D|-------------------------------------------------------------------
A|---------------------------------------5-5-5-5---------4-4-4-4-----
E|-0-0-0-0--------0-0-0-0--------3-3-3-3---------2-2-2-2-------------

Stave 11:

E|---------------------------------------------------------------------------------------
B|---------------------------------------------------------------------------------------
G|---------------------------------------------------------------------------------------
D|---------------------------------------------------------------------------------------
A|---------------------------------------------------------------------------------------
E|-0h15-----15-15-15-15-15-15-0h15---15-0h15---0h15-----15-15-15-15-15-0h15--15-15-15-15-

Stave 12:

E|---------------------------------------------------------------------------
B|---------------------------------------------------------------------------
G|-0-----------------------0------0---0-----------------------0--------------
D|-0-----------------------0------0---0-----------------------0--------------
A|-0-----------------------0------0---0-----------------------0--------------
E|-0-----15-15-15-15-15-15-0---15-0---0-----15-15-15-15-15-15-0--15-15-15-15-

Stave 13:

E|---------------------------------
B|---------------------------------
G|---------------------------------
D|-------------3-3-------------5-5-
A|---------5-5-------------4-4-----
E|-3-3-3-3---------2-2-2-2---------

Stave 14:

E|---------------------------------
B|---------------------------------
G|-------------------------2-------
D|-------------3-3-----------5-3-2-
A|---------5-5---------------------
E|-3-3-3-3---------2-2-2-2---------

Stave 15:

E|---------------------------------------------------------------
B|----------6-6-6----------6-6-6---------------------------------
G|----------7-7-7----------7-7-7---------------------------------
D|---------------------------------------------------------------
A|---------------------------------------5-5-5-5---------4-4-4-4-
E|-0-0-0-0--------0-0-0-0--------3-3-3-3---------2-2-2-2---------

Stave 16:

E|-----------------------------------------------------------------
B|-----------------------------------------------------------------
G|-----------------------------------------------------------------
D|-----------------------------------------------------------------
A|-----------------------------------------------------------------
E|-8-8-8-8-8-8-8-8-2-2-2-2-2-2-2-2-0-0-0-0-0-0-0-0-3-3-3-3-3-3-3-3-

Stave 17:

E|-----------------------------------------------------------------
B|-----------------------------------------------------------------
G|-----------------------------------------------------------------
D|-----------------------------------------------------------------
A|---------------------------------5-5-5-5-5-5-5-5-3-3-3-3-3-3-3-3-
E|-8-8-8-8-8-8-8-8-2-2-2-2-2-2-2-2---------------------------------

Stave 18:

E|-----------------------------------------------------------------
B|-----------------------------------------------------------------
G|-----------------------------------------------------------------
D|-----------------------------------------------------------------
A|-----------------------------------------------------------------
E|-8-8-8-8-8-8-8-8-2-2-2-2-2-2-2-2-0-0-0-0-0-0-0-0-3-3-3-3-3-3-3-3-

Stave 19:

E|---------------------------------
B|---------------------------------
G|---------------------------------
D|---------------------------------
A|---------------------------------
E|-8-8-8-8-8-8-8-8-2-2-2-2-2-2-2-2-

Stave 20:

E|---------------------------------------------------------
B|---------------------------------------------------------
G|---------------------------------------------------------
D|-----------------3-3-------------------------------------
A|-5-5-----------------4-4-----5-5-----5-5-----4-4-5-5-----
E|-----3-3-7-7-8-8---------5-5-----3-3-----2-2---------0-0-

Stave 21:

E|-------------------------------------------------------------------------------------------
B|-------------------------------------------------------------------------------------------
G|-------------------------------------------------------------------------------------------
D|-----------------3-3-----------------------------------------------------------------------
A|-5-5-----------------4-4-----5-5-----5-5-----4-4-5-5-5-5-----5-5-----5-5-----4-4-5-5-5-5---
E|-----3-3-7-7-8-8---------5-5-----3-3-----2-2-------------5-5-----3-3-----2-2---------------

Stave 22:

E|---------------------------------
B|---------------------------------
G|---------------------------------
D|---------------------------------
A|-------------------5-5-5-5-5-5-5-
E|-5-3-5-3-5-3-5-3-5---------------

Stave 23:

E|----------------------------------
B|----------------------------------
G|-0-----------------------0------0-
D|-0-----------------------0------0-
A|-0-----------------------0------0-
E|-0-----15-15-15-15-15-15-0---15-0-

http://www.guitartabcreator.com
Guitar Tab Creator is intended to store guitar tab created through the tool. It currently does not support in-line text editing. Any text you place in here will be lost. If you need to comment on your tab, please use the "Tab Notes" section located below.