Senorita

01234567891011121314151617181920212223
E
B
G
D
A
E
B
0 1 2 3 4 5 6 7 8 9 10 11 12 13 14 15 16 17 18 19 20 21 22 23
(/) Slide Up  (\) Slide Down  (h) Hammer On  (p) Pull Off  (b) Bend (r) Release (v) Vibrato

Intro (Palm Mute)

E|--8--5-----8--7-----------8--7--5--7--8--------8--7-----------8--7--5-----
B|--------5--------8-----8-----------------8--5--------8-----8-----------8--
G|--------------------------------------------------------------------------
D|--------------------------------------------------------------------------
A|--------------------------------------------------------------------------
E|--------------------------------------------------------------------------

Stave 2:

E|-----8--8--8--------8--8--8--7--|--8--7--8--7-----7--8--7--7--8--7--5--7--
B|--6-----------6--6--------------|--------------8--------------------------
G|--------------------------------|-----------------------------------------
D|--------------------------------|-----------------------------------------
A|--------------------------------|-----------------------------------------
E|--------------------------------|-----------------------------------------

Chorus 1

E|--8--5-----8--7-----7--8--7--5--7--|--8--------8--7--7-----7--8--7--5-----
B|--------5--------8-----------------|-----8--5-----------8--------------8--
G|-----------------------------------|--------------------------------------
D|-----------------------------------|--------------------------------------
A|-----------------------------------|--------------------------------------
E|-----------------------------------|--------------------------------------

Stave 4:

E|-----8--8--8--------8--8--8--7--|--7--8--7--8--7-----7--7--8--7--8--7--5-----
B|--6-----------6--6--------------|-----------------8-----------------------8--
G|--------------------------------|--------------------------------------------
D|--------------------------------|--------------------------------------------
A|--------------------------------|--------------------------------------------
E|--------------------------------|--------------------------------------------

Verse 1

E|--5--------------------------------------|-----------------------------------------
B|-----5-----5--------5-----5--------------|-----5-----5--------5-----5--6--5--------
G|--------7-----7--5-----7-----7--5--5--4--|--------7-----7--5-----7-----------7--5--
D|-----------------------------------------|--7--------------------------------------
A|-----------------------------------------|-----------------------------------------
E|-----------------------------------------|-----------------------------------------

Stave 6:

E|--------------------------|--------------------------
B|-----5--5--5--5-----------|--------------------------
G|--------------------------|-----7--7--7--5--4--------
D|--7--------------7--5--5--|--5-----------------5--7--
A|--------------------------|--------------------------
E|--------------------------|--------------------------

Stave 7:

E|-----------------|-----------------------------------------|-----------------------
B|--5-----5--------|--5-----5-----------------5-----5--------|--5-----5--6--5--------
G|-----7-----7--5--|-----7-----7--5--5--4--------7-----7--5--|-----7-----------7--5--
D|-----------------|-----------------------7-----------------|-----------------------
A|-----------------|-----------------------------------------|-----------------------
E|-----------------|-----------------------------------------|-----------------------

Stave 8:

E|-----------------------------------------------------|-----------------
B|-----5--5--5--5-----------------------------4--------|--7--8--7--5--7--
G|--------------------------------7--7--7--5-----------|-----------------
D|--7--------------7--5--5--5--5-----------------7--5--|-----------------
A|-----------------------------------------------------|-----------------
E|-----------------------------------------------------|-----------------

Chorus 2

E|--8--5-----8--7-----7--8--7--5--7--|--8--------8--7--7-----7--8--7--5-----
B|--------5--------8-----------------|-----8--5-----------8--------------8--
G|-----------------------------------|--------------------------------------
D|-----------------------------------|--------------------------------------
A|-----------------------------------|--------------------------------------
E|-----------------------------------|--------------------------------------

Stave 10:

E|-----8--8--8--------8--8--8--7--7--8--7--8--7-----7--7--8--7--7--8--7--5--7--
B|--6-----------6--6-----------------------------8-----------------------------
G|-----------------------------------------------------------------------------
D|-----------------------------------------------------------------------------
A|-----------------------------------------------------------------------------
E|-----------------------------------------------------------------------------

Stave 11:

E|--8--5-----8--7-----7--8--7--5--7--|--8--------8--7--7-----7--8--7--5-----
B|--------5--------8-----------------|-----8--5-----------8--------------8--
G|-----------------------------------|--------------------------------------
D|-----------------------------------|--------------------------------------
A|-----------------------------------|--------------------------------------
E|-----------------------------------|--------------------------------------

Stave 12:

E|-----8--8--8--------8--8--8--7--|--7--8--7--8--7-----7--7--8--7--8--7--5-----
B|--6-----------6--6--------------|-----------------8-----------------------8--
G|--------------------------------|--------------------------------------------
D|--------------------------------|--------------------------------------------
A|--------------------------------|--------------------------------------------
E|--------------------------------|--------------------------------------------

Verse 2

E|--5-----------------5-----5--------------|-----------------------------------------
B|-----5-----5-----------------------------|-----5-----5--------5-----5--6--5--------
G|--------7-----7--5-----7-----7--5--5--4--|--------7-----7--5-----7-----------7--5--
D|-----------------------------------------|--7--------------------------------------
A|-----------------------------------------|-----------------------------------------
E|-----------------------------------------|-----------------------------------------

Stave 14:

E|--------------------------|------------------------------------------------------5--------------
B|-----5--5--5--5-----8--8--|--10--8--------------------------------------------8-----8--5--------
G|--------------------------|---------9--7--9--7--9--7--9--7--9--7--9--7--5--7--------------7--5--
D|--7-----------------------|---------------------------------------------------------------------
A|--------------------------|---------------------------------------------------------------------
E|--------------------------|---------------------------------------------------------------------

Bridge

E|--------------------------------------|-----------------------------7--8--7--5--7--
B|--5--5--5--8--6--5--------5--5--8--6--|--5--5--8--6--5--------5--5-----------------
G|--------------------7--5--------------|-----------------7--5-----------------------
D|--------------------------------------|--------------------------------------------
A|--------------------------------------|--------------------------------------------
E|--------------------------------------|--------------------------------------------

Stave 16:

E|--8--5-----8--7-----7--8--7--5--7--|--8--------8--7--7-----7--8--7--5-----
B|--------5--------8-----------------|-----8--5-----------8--------------8--
G|-----------------------------------|--------------------------------------
D|-----------------------------------|--------------------------------------
A|-----------------------------------|--------------------------------------
E|-----------------------------------|--------------------------------------

Stave 17:

E|-----8--8--8--------8--8--8--7--|--7--8--7--8--7-----7--7--8--7--7--8--7--5--7--
B|--6-----------6--6--------------|-----------------8-----------------------------
G|--------------------------------|-----------------------------------------------
D|--------------------------------|-----------------------------------------------
A|--------------------------------|-----------------------------------------------
E|--------------------------------|-----------------------------------------------

Stave 18:

E|--8--5-----8--7-----7--8--7--5--7--|--8--------8--7--7-----7--8--7--5-----
B|--------5--------8-----------------|-----8--5-----------8--------------8--
G|-----------------------------------|--------------------------------------
D|-----------------------------------|--------------------------------------
A|-----------------------------------|--------------------------------------
E|-----------------------------------|--------------------------------------

Stave 19:

E|-----8--8--8--------8--8--8--7--|--7--8--7--8--7-----7-----7--8--7--8--7--5-----
B|--6-----------6--6--------------|-----------------8--------------------------8--
G|--------------------------------|-----------------------------------------------
D|--------------------------------|-----------------------------------------------
A|--------------------------------|-----------------------------------------------
E|--------------------------------|-----------------------------------------------

Outro

E|--5--5--7--8--10--8--7--5-----|-----5--7--8--10--8--7--5-----
B|---------------------------8--|--8------------------------8--
G|------------------------------|------------------------------
D|------------------------------|------------------------------
A|------------------------------|------------------------------
E|------------------------------|------------------------------

Stave 21:

E|--5--5--7--8--10--8--7--5-----|-----7--5--------
B|---------------------------8--|--8--------8--8--
G|------------------------------|-----------------
D|------------------------------|-----------------
A|------------------------------|-----------------
E|------------------------------|-----------------

Stave 22:

E|-----------------------------------------------------------
B|-----------------------------------------------------------
G|--------------5--7--5--7--5--------------5--7--5--7--5-----
D|-----------------------------7--------------------------7--
A|-----------------------------------------------------------
E|-----------------------------------------------------------

Stave 23:

E|--------7--7--8--7--8--7-----7-----7--8--7--8--7--5-----5--
B|--------------------------8--------------------------8-----
G|-----------------------------------------------------------
D|-----------------------------------------------------------
A|-----------------------------------------------------------
E|-----------------------------------------------------------

							http://www.guitartabcreator.com
Chords

Instruments
{"strings":[[[8,5,".",8,7,".","_",".",8,7,5,7,8,".",".",8,7,".","_",".",8,7,5,"."],[".",".",5,".",".",8,"_",8,".",".",".",".",".",8,5,".",".",8,"_",8,".",".",".",8],[".",".",".",".",".",".","_",".",".",".",".",".",".",".",".",".",".",".","_",".",".",".",".","."],[".",".",".",".",".",".","_",".",".",".",".",".",".",".",".",".",".",".","_",".",".",".",".","."],[".",".",".",".",".",".","_",".",".",".",".",".",".",".",".",".",".",".","_",".",".",".",".","."],[".",".",".",".",".",".","_",".",".",".",".",".",".",".",".",".",".",".","_",".",".",".",".","."]],[[".",8,8,8,".",".",8,8,8,7,"|",8,7,8,7,".",7,8,7,7,8,7,5,7],[6,".",".",".",6,6,".",".",".",".","|",".",".",".",".",8,".",".",".",".",".",".",".","."],[".",".",".",".",".",".",".",".",".",".","|",".",".",".",".",".",".",".",".",".",".",".",".","."],[".",".",".",".",".",".",".",".",".",".","|",".",".",".",".",".",".",".",".",".",".",".",".","."],[".",".",".",".",".",".",".",".",".",".","|",".",".",".",".",".",".",".",".",".",".",".",".","."],[".",".",".",".",".",".",".",".",".",".","|",".",".",".",".",".",".",".",".",".",".",".",".","."]],[[8,5,".",8,7,".",7,8,7,5,7,"|",8,".",".",8,7,7,".",7,8,7,5,"."],[".",".",5,".",".",8,".",".",".",".",".","|",".",8,5,".",".",".",8,".",".",".",".",8],[".",".",".",".",".",".",".",".",".",".",".","|",".",".",".",".",".",".",".",".",".",".",".","."],[".",".",".",".",".",".",".",".",".",".",".","|",".",".",".",".",".",".",".",".",".",".",".","."],[".",".",".",".",".",".",".",".",".",".",".","|",".",".",".",".",".",".",".",".",".",".",".","."],[".",".",".",".",".",".",".",".",".",".",".","|",".",".",".",".",".",".",".",".",".",".",".","."]],[[".",8,8,8,".",".",8,8,8,7,"|",7,8,7,8,7,".",7,7,8,7,8,7,5,"."],[6,".",".",".",6,6,".",".",".",".","|",".",".",".",".",".",8,".",".",".",".",".",".",".",8],[".",".",".",".",".",".",".",".",".",".","|",".",".",".",".",".",".",".",".",".",".",".",".",".","."],[".",".",".",".",".",".",".",".",".",".","|",".",".",".",".",".",".",".",".",".",".",".",".",".","."],[".",".",".",".",".",".",".",".",".",".","|",".",".",".",".",".",".",".",".",".",".",".",".",".","."],[".",".",".",".",".",".",".",".",".",".","|",".",".",".",".",".",".",".",".",".",".",".",".",".","."]],[[5,".",".",".",".",".",".",".",".",".",".",".",".","|",".",".",".",".",".",".",".",".",".",".",".",".","."],[".",5,".",5,".",".",5,".",5,".",".",".",".","|",".",5,".",5,".",".",5,".",5,6,5,".","."],[".",".",7,".",7,5,".",7,".",7,5,5,4,"|",".",".",7,".",7,5,".",7,".",".",".",7,5],[".",".",".",".",".",".",".",".",".",".",".",".",".","|",7,".",".",".",".",".",".",".",".",".",".",".","."],[".",".",".",".",".",".",".",".",".",".",".",".",".","|",".",".",".",".",".",".",".",".",".",".",".",".","."],[".",".",".",".",".",".",".",".",".",".",".",".",".","|",".",".",".",".",".",".",".",".",".",".",".",".","."]],[[".",".",".",".",".",".",".",".","|",".",".",".",".",".",".",".","."],[".",5,5,5,5,".",".",".","|",".",".",".",".",".",".",".","."],[".",".",".",".",".",".",".",".","|",".",7,7,7,5,4,".","."],[7,".",".",".",".",7,5,5,"|",5,".",".",".",".",".",5,7],[".",".",".",".",".",".",".",".","|",".",".",".",".",".",".",".","."],[".",".",".",".",".",".",".",".","|",".",".",".",".",".",".",".","."]],[[".",".",".",".",".","|",".",".",".",".",".",".",".",".",".",".",".",".",".","|",".",".",".",".",".",".","."],[5,".",5,".",".","|",5,".",5,".",".",".",".",".",5,".",5,".",".","|",5,".",5,6,5,".","."],[".",7,".",7,5,"|",".",7,".",7,5,5,4,".",".",7,".",7,5,"|",".",7,".",".",".",7,5],[".",".",".",".",".","|",".",".",".",".",".",".",".",7,".",".",".",".",".","|",".",".",".",".",".",".","."],[".",".",".",".",".","|",".",".",".",".",".",".",".",".",".",".",".",".",".","|",".",".",".",".",".",".","."],[".",".",".",".",".","|",".",".",".",".",".",".",".",".",".",".",".",".",".","|",".",".",".",".",".",".","."]],[[".",".",".",".",".",".",".",".",".",".",".",".",".",".",".",".",".","|",".",".",".",".","."],[".",5,5,5,5,".",".",".",".",".",".",".",".",".",4,".",".","|",7,8,7,5,7],[".",".",".",".",".",".",".",".",".",".",7,7,7,5,".",".",".","|",".",".",".",".","."],[7,".",".",".",".",7,5,5,5,5,".",".",".",".",".",7,5,"|",".",".",".",".","."],[".",".",".",".",".",".",".",".",".",".",".",".",".",".",".",".",".","|",".",".",".",".","."],[".",".",".",".",".",".",".",".",".",".",".",".",".",".",".",".",".","|",".",".",".",".","."]],[[8,5,".",8,7,".",7,8,7,5,7,"|",8,".",".",8,7,7,".",7,8,7,5,"."],[".",".",5,".",".",8,".",".",".",".",".","|",".",8,5,".",".",".",8,".",".",".",".",8],[".",".",".",".",".",".",".",".",".",".",".","|",".",".",".",".",".",".",".",".",".",".",".","."],[".",".",".",".",".",".",".",".",".",".",".","|",".",".",".",".",".",".",".",".",".",".",".","."],[".",".",".",".",".",".",".",".",".",".",".","|",".",".",".",".",".",".",".",".",".",".",".","."],[".",".",".",".",".",".",".",".",".",".",".","|",".",".",".",".",".",".",".",".",".",".",".","."]],[[".",8,8,8,".",".",8,8,8,7,7,8,7,8,7,".",7,7,8,7,7,8,7,5,7],[6,".",".",".",6,6,".",".",".",".",".",".",".",".",".",8,".",".",".",".",".",".",".",".","."],[".",".",".",".",".",".",".",".",".",".",".",".",".",".",".",".",".",".",".",".",".",".",".",".","."],[".",".",".",".",".",".",".",".",".",".",".",".",".",".",".",".",".",".",".",".",".",".",".",".","."],[".",".",".",".",".",".",".",".",".",".",".",".",".",".",".",".",".",".",".",".",".",".",".",".","."],[".",".",".",".",".",".",".",".",".",".",".",".",".",".",".",".",".",".",".",".",".",".",".",".","."]],[[8,5,".",8,7,".",7,8,7,5,7,"|",8,".",".",8,7,7,".",7,8,7,5,"."],[".",".",5,".",".",8,".",".",".",".",".","|",".",8,5,".",".",".",8,".",".",".",".",8],[".",".",".",".",".",".",".",".",".",".",".","|",".",".",".",".",".",".",".",".",".",".",".","."],[".",".",".",".",".",".",".",".",".",".",".","|",".",".",".",".",".",".",".",".",".",".",".","."],[".",".",".",".",".",".",".",".",".",".",".","|",".",".",".",".",".",".",".",".",".",".",".","."],[".",".",".",".",".",".",".",".",".",".",".","|",".",".",".",".",".",".",".",".",".",".",".","."]],[[".",8,8,8,".",".",8,8,8,7,"|",7,8,7,8,7,".",7,7,8,7,8,7,5,"."],[6,".",".",".",6,6,".",".",".",".","|",".",".",".",".",".",8,".",".",".",".",".",".",".",8],[".",".",".",".",".",".",".",".",".",".","|",".",".",".",".",".",".",".",".",".",".",".",".",".","."],[".",".",".",".",".",".",".",".",".",".","|",".",".",".",".",".",".",".",".",".",".",".",".",".","."],[".",".",".",".",".",".",".",".",".",".","|",".",".",".",".",".",".",".",".",".",".",".",".",".","."],[".",".",".",".",".",".",".",".",".",".","|",".",".",".",".",".",".",".",".",".",".",".",".",".","."]],[[5,".",".",".",".",".",5,".",5,".",".",".",".","|",".",".",".",".",".",".",".",".",".",".",".",".","."],[".",5,".",5,".",".",".",".",".",".",".",".",".","|",".",5,".",5,".",".",5,".",5,6,5,".","."],[".",".",7,".",7,5,".",7,".",7,5,5,4,"|",".",".",7,".",7,5,".",7,".",".",".",7,5],[".",".",".",".",".",".",".",".",".",".",".",".",".","|",7,".",".",".",".",".",".",".",".",".",".",".","."],[".",".",".",".",".",".",".",".",".",".",".",".",".","|",".",".",".",".",".",".",".",".",".",".",".",".","."],[".",".",".",".",".",".",".",".",".",".",".",".",".","|",".",".",".",".",".",".",".",".",".",".",".",".","."]],[[".",".",".",".",".","_",".",".","|",".",".",".",".",".",".",".",".",".",".",".",".",".",".",".",".",".",5,".",".",".","."],[".",5,5,5,5,"_",8,8,"|",10,8,".",".",".",".",".",".",".",".",".",".",".",".",".",".",8,".",8,5,".","."],[".",".",".",".",".","_",".",".","|",".",".",9,7,9,7,9,7,9,7,9,7,9,7,5,7,".",".",".",".",7,5],[7,".",".",".",".","_",".",".","|",".",".",".",".",".",".",".",".",".",".",".",".",".",".",".",".",".",".",".",".",".","."],[".",".",".",".",".","_",".",".","|",".",".",".",".",".",".",".",".",".",".",".",".",".",".",".",".",".",".",".",".",".","."],[".",".",".",".",".","_",".",".","|",".",".",".",".",".",".",".",".",".",".",".",".",".",".",".",".",".",".",".",".",".","."]],[[".",".",".",".",".",".",".",".",".",".",".",".","|",".",".",".",".",".",".",".",".",".",7,8,7,5,7],[5,5,5,8,6,5,".",".",5,5,8,6,"|",5,5,8,6,5,".",".",5,5,".",".",".",".","."],[".",".",".",".",".",".",7,5,".",".",".",".","|",".",".",".",".",".",7,5,".",".",".",".",".",".","."],[".",".",".",".",".",".",".",".",".",".",".",".","|",".",".",".",".",".",".",".",".",".",".",".",".",".","."],[".",".",".",".",".",".",".",".",".",".",".",".","|",".",".",".",".",".",".",".",".",".",".",".",".",".","."],[".",".",".",".",".",".",".",".",".",".",".",".","|",".",".",".",".",".",".",".",".",".",".",".",".",".","."]],[[8,5,".",8,7,".",7,8,7,5,7,"|",8,".",".",8,7,7,".",7,8,7,5,"."],[".",".",5,".",".",8,".",".",".",".",".","|",".",8,5,".",".",".",8,".",".",".",".",8],[".",".",".",".",".",".",".",".",".",".",".","|",".",".",".",".",".",".",".",".",".",".",".","."],[".",".",".",".",".",".",".",".",".",".",".","|",".",".",".",".",".",".",".",".",".",".",".","."],[".",".",".",".",".",".",".",".",".",".",".","|",".",".",".",".",".",".",".",".",".",".",".","."],[".",".",".",".",".",".",".",".",".",".",".","|",".",".",".",".",".",".",".",".",".",".",".","."]],[[".",8,8,8,".",".",8,8,8,7,"|",7,8,7,8,7,".",7,7,8,7,7,8,7,5,7],[6,".",".",".",6,6,".",".",".",".","|",".",".",".",".",".",8,".",".",".",".",".",".",".",".","."],[".",".",".",".",".",".",".",".",".",".","|",".",".",".",".",".",".",".",".",".",".",".",".",".",".","."],[".",".",".",".",".",".",".",".",".",".","|",".",".",".",".",".",".",".",".",".",".",".",".",".",".","."],[".",".",".",".",".",".",".",".",".",".","|",".",".",".",".",".",".",".",".",".",".",".",".",".",".","."],[".",".",".",".",".",".",".",".",".",".","|",".",".",".",".",".",".",".",".",".",".",".",".",".",".","."]],[[8,5,".",8,7,".",7,8,7,5,7,"|",8,".",".",8,7,7,".",7,8,7,5,"."],[".",".",5,".",".",8,".",".",".",".",".","|",".",8,5,".",".",".",8,".",".",".",".",8],[".",".",".",".",".",".",".",".",".",".",".","|",".",".",".",".",".",".",".",".",".",".",".","."],[".",".",".",".",".",".",".",".",".",".",".","|",".",".",".",".",".",".",".",".",".",".",".","."],[".",".",".",".",".",".",".",".",".",".",".","|",".",".",".",".",".",".",".",".",".",".",".","."],[".",".",".",".",".",".",".",".",".",".",".","|",".",".",".",".",".",".",".",".",".",".",".","."]],[[".",8,8,8,".",".",8,8,8,7,"|",7,8,7,8,7,".",7,"_",7,8,7,8,7,5,"."],[6,".",".",".",6,6,".",".",".",".","|",".",".",".",".",".",8,".","_",".",".",".",".",".",".",8],[".",".",".",".",".",".",".",".",".",".","|",".",".",".",".",".",".",".","_",".",".",".",".",".",".","."],[".",".",".",".",".",".",".",".",".",".","|",".",".",".",".",".",".",".","_",".",".",".",".",".",".","."],[".",".",".",".",".",".",".",".",".",".","|",".",".",".",".",".",".",".","_",".",".",".",".",".",".","."],[".",".",".",".",".",".",".",".",".",".","|",".",".",".",".",".",".",".","_",".",".",".",".",".",".","."]],[[5,5,7,8,10,8,7,5,".","|",".",5,7,8,10,8,7,5,"."],[".",".",".",".",".",".",".",".",8,"|",8,".",".",".",".",".",".",".",8],[".",".",".",".",".",".",".",".",".","|",".",".",".",".",".",".",".",".","."],[".",".",".",".",".",".",".",".",".","|",".",".",".",".",".",".",".",".","."],[".",".",".",".",".",".",".",".",".","|",".",".",".",".",".",".",".",".","."],[".",".",".",".",".",".",".",".",".","|",".",".",".",".",".",".",".",".","."]],[[5,5,7,8,10,8,7,5,".","|",".",7,5,".","."],[".",".",".",".",".",".",".",".",8,"|",8,".",".",8,8],[".",".",".",".",".",".",".",".",".","|",".",".",".",".","."],[".",".",".",".",".",".",".",".",".","|",".",".",".",".","."],[".",".",".",".",".",".",".",".",".","|",".",".",".",".","."],[".",".",".",".",".",".",".",".",".","|",".",".",".",".","."]],[["_","_","_","_",".",".",".",".",".",".","_","_","_",".",".",".",".",".","."],["_","_","_","_",".",".",".",".",".",".","_","_","_",".",".",".",".",".","."],["_","_","_","_",5,7,5,7,5,".","_","_","_",5,7,5,7,5,"."],["_","_","_","_",".",".",".",".",".",7,"_","_","_",".",".",".",".",".",7],["_","_","_","_",".",".",".",".",".",".","_","_","_",".",".",".",".",".","."],["_","_","_","_",".",".",".",".",".",".","_","_","_",".",".",".",".",".","."]],[["_","_",7,7,8,7,8,7,".",7,"_",7,8,7,8,7,5,".",5],["_","_",".",".",".",".",".",".",8,".","_",".",".",".",".",".",".",8,"."],["_","_",".",".",".",".",".",".",".",".","_",".",".",".",".",".",".",".","."],["_","_",".",".",".",".",".",".",".",".","_",".",".",".",".",".",".",".","."],["_","_",".",".",".",".",".",".",".",".","_",".",".",".",".",".",".",".","."],["_","_",".",".",".",".",".",".",".",".","_",".",".",".",".",".",".",".","."]]],"numberofstrings":6,"notes":["E","B","G","D","A","E","B"],"capo":0,"stringnotes":["E4","B3","G3","D3","A2","E2"],"comments":["Intro (Palm Mute)","Stave 2:","Chorus 1","Stave 4:","Verse 1","Stave 6:","Stave 7:","Stave 8:","Chorus 2","Stave 10:","Stave 11:","Stave 12:","Verse 2","Stave 14:","Bridge","Stave 16:","Stave 17:","Stave 18:","Stave 19:","Outro","Stave 21:","Stave 22:","Stave 23:"],"timing":[["W","W","W","W","W","W","W","W","W","W","W","W","W","W","W","W","W","W","W","W","W","W","W","W"],["W","W","W","W","W","W","W","W","W","W",null,"W","W","W","W","W","W","W","W","W","W","W","W","W"],["W","W","W","W","W","W","W","W","W","W","W",null,"W","W","W","W","W","W","W","W","W","W","W","W"],["W","W","W","W","W","W","W","W","W","W",null,"W","W","W","W","W","W","W","W","W","W","W","W","W","W"],["W","W","W","W","W","W","W","W","W","W","W","W","W",null,"W","W","W","W","W","W","W","W","W","W","W","W","W"],["W","W","W","W","W","W","W","W",null,"W","W","W","W","W","W","W","W"],["W","W","W","W","W",null,"W","W","W","W","W","W","W","W","W","W","W","W","W",null,"W","W","W","W","W","W","W"],["W","W","W","W","W","W","W","W","W","W","W","W","W","W","W","W","W",null,"W","W","W","W","W"],["W","W","W","W","W","W","W","W","W","W","W",null,"W","W","W","W","W","W","W","W","W","W","W","W"],["W","W","W","W","W","W","W","W","W","W","W","W","W","W","W","W","W","W","W","W","W","W","W","W","W"],["W","W","W","W","W","W","W","W","W","W","W",null,"W","W","W","W","W","W","W","W","W","W","W","W"],["W","W","W","W","W","W","W","W","W","W",null,"W","W","W","W","W","W","W","W","W","W","W","W","W","W"],["W","W","W","W","W","W","W","W","W","W","W","W","W",null,"W","W","W","W","W","W","W","W","W","W","W","W","W"],["W","W","W","W","W","W","W","W",null,"W","W","W","W","W","W","W","W","W","W","W","W","W","W","W","W","W","W","W","W","W","W"],["W","W","W","W","W","W","W","W","W","W","W","W",null,"W","W","W","W","W","W","W","W","W","W","W","W","W","W"],["W","W","W","W","W","W","W","W","W","W","W",null,"W","W","W","W","W","W","W","W","W","W","W","W"],["W","W","W","W","W","W","W","W","W","W","W","W","W","W","W","W","W","W","W","W","W","W","W","W","W","W"],["W","W","W","W","W","W","W","W","W","W","W",null,"W","W","W","W","W","W","W","W","W","W","W","W"],["W","W","W","W","W","W","W","W","W","W",null,"W","W","W","W","W","W","W","W","W","W","W","W","W","W","W"],["W","W","W","W","W","W","W","W","W",null,"W","W","W","W","W","W","W","W","W"],["W","W","W","W","W","W","W","W","W",null,"W","W","W","W","W"],[null,null,null,null,"W","W","W","W","W","W",null,null,null,"W","W","W","W","W","W"],[null,null,"W","W","W","W","W","W","W","W",null,"W","W","W","W","W","W","W","W"]],"timingvisible":false,"tabcounter":24,"stave":0,"totalstaves":23,"instrument":"6guitar","selectedtuning":"6_standard","version":"13"}

Member for

4 months 4 weeks
Submitted by millzy1955 on Fri, 2021-02-26 12:04