Rhythm of The Rain - Cascades

01234567891011121314151617181920212223
E
B
G
D
A
E
B
0 1 2 3 4 5 6 7 8 9 10 11 12 13 14 15 16 17 18 19 20 21 22 23
(/) Slide Up  (\) Slide Down  (h) Hammer On  (p) Pull Off  (b) Bend (r) Release (v) Vibrato

Intro

E|--12------12----------------------|--12------12------14--11----------
B|------12------12--14------14------|------12------12----------12------
G|----------------------13------13--|------------------------------11--
D|----------------------------------|----------------------------------
A|----------------------------------|----------------------------------
E|----------------------------------|----------------------------------

Stave 2:

E|-----------------------------------|---------------------------------------------------------------
B|-----------------------------------|---------------------------------------------------------------
G|--6--4--4--------------------------|--6--4--4-------------4--4--4h6--4--4--------------------------
D|-----------6--6--4--4--2--4--2--2--|-----------6--6h4--6-------------------6--6--4--4--2--4--2--2--
A|-----------------------------------|---------------------------------------------------------------
E|-----------------------------------|---------------------------------------------------------------

Stave 3:

E|--------------------------|--------------------------------------
B|--------------------------|--------------------------------------
G|--------------------------|--4--6--4--4--------------------------
D|-----2--4--2--4-----1--2--|--------------6--6--4--4--2--4--2--2--
A|--4--------------4--------|--------------------------------------
E|--------------------------|--------------------------------------

Stave 4:

E|-----------------------------------------------------------|--------------------------
B|-----------------------------------------------------------|--------------------------
G|--6--4--4--------4--4--4--6--4--4--------------------------|--------------------------
D|-----------6--6--------------------6--6--4--4--2--4--2--2--|-----2--4--2--4-----1--2--
A|-----------------------------------------------------------|--4--------------4--------
E|-----------------------------------------------------------|--------------------------

Stave 5:

E|-----------------------------|--------------------------------------
B|--5--5--5--4--5--9--7--4--4--|--------------------------5--4--------
G|--6--6--6--5--6--9--8--4--4--|--4--6--5--6--5--6--5--6--6--4--4--4--
D|-----------------------------|--6--7--6--7--6--7--6--7--------6--6--
A|-----------------------------|--------------------------------------
E|-----------------------------|--------------------------------------

Stave 6:

E|----------------------------------------------|-----------------------
B|----------------------------------------------|-----------------------
G|----------------------------------------------|--8--8--6--6--4--4--2--
D|-----2--2--1--2--1--2--4/6--4--2-----------2--|--9--9--7--7--6--6--4--
A|--2-------------------------------4--2--4-----|-----------------------
E|----------------------------------------------|-----------------------

Stave 7:

E|--7/9--7--7--------------------------|--9--7--7--------7--7--|--7/9--7--7--------------------------
B|-------------9--9--7--7-----7--------|-----------9--9--------|-------------9--9--7--7-----7--------
G|-------------------------9-----9--9--|-----------------------|-------------------------9-----9--9--
D|-------------------------------------|-----------------------|-------------------------------------
A|-------------------------------------|-----------------------|-------------------------------------
E|-------------------------------------|-----------------------|-------------------------------------

Stave 8:

E|--------------------------|--
B|-----5--7--5--7-----4--5--|--
G|--6--------------6--------|--
D|--------------------------|--
A|--------------------------|--
E|--------------------------|--

							http://www.guitartabcreator.com
Chords

Instruments
{"strings":[[[12,".",12,".",".",".",".",".","|",12,".",12,".",14,11,".","."],[".",12,".",12,14,".",14,".","|",".",12,".",12,".",".",12,"."],[".",".",".",".",".",13,".",13,"|",".",".",".",".",".",".",".",11],[".",".",".",".",".",".",".",".","|",".",".",".",".",".",".",".","."],[".",".",".",".",".",".",".",".","|",".",".",".",".",".",".",".","."],[".",".",".",".",".",".",".",".","|",".",".",".",".",".",".",".","."]],[[".",".",".",".",".",".",".",".",".",".",".","|",".",".",".",".",".",".",".",".",".",".",".",".",".",".",".",".",".",".",".",".",".",".","."],[".",".",".",".",".",".",".",".",".",".",".","|",".",".",".",".",".",".",".",".",".",".",".",".",".",".",".",".",".",".",".",".",".",".","."],[6,4,4,".",".",".",".",".",".",".",".","|",6,4,4,".",".",".",".",".",4,4,4,"h",6,4,4,".",".",".",".",".",".",".","."],[".",".",".",6,6,4,4,2,4,2,2,"|",".",".",".",6,6,"h",4,6,".",".",".",".",".",".",".",6,6,4,4,2,4,2,2],[".",".",".",".",".",".",".",".",".",".",".","|",".",".",".",".",".",".",".",".",".",".",".",".",".",".",".",".",".",".",".",".",".",".","."],[".",".",".",".",".",".",".",".",".",".",".","|",".",".",".",".",".",".",".",".",".",".",".",".",".",".",".",".",".",".",".",".",".",".","."]],[[".",".",".",".",".",".",".",".","|",".",".",".",".",".",".",".",".",".",".",".","."],[".",".",".",".",".",".",".",".","|",".",".",".",".",".",".",".",".",".",".",".","."],[".",".",".",".",".",".",".",".","|",4,6,4,4,".",".",".",".",".",".",".","."],[".",2,4,2,4,".",1,2,"|",".",".",".",".",6,6,4,4,2,4,2,2],[4,".",".",".",".",4,".",".","|",".",".",".",".",".",".",".",".",".",".",".","."],[".",".",".",".",".",".",".",".","|",".",".",".",".",".",".",".",".",".",".",".","."]],[[".",".",".",".",".",".",".",".",".",".",".",".",".",".",".",".",".",".",".","|",".",".",".",".",".",".",".","."],[".",".",".",".",".",".",".",".",".",".",".",".",".",".",".",".",".",".",".","|",".",".",".",".",".",".",".","."],[6,4,4,".",".",4,4,4,6,4,4,".",".",".",".",".",".",".",".","|",".",".",".",".",".",".",".","."],[".",".",".",6,6,".",".",".",".",".",".",6,6,4,4,2,4,2,2,"|",".",2,4,2,4,".",1,2],[".",".",".",".",".",".",".",".",".",".",".",".",".",".",".",".",".",".",".","|",4,".",".",".",".",4,".","."],[".",".",".",".",".",".",".",".",".",".",".",".",".",".",".",".",".",".",".","|",".",".",".",".",".",".",".","."]],[[".",".",".",".",".",".",".",".",".","|",".",".",".",".",".",".",".",".",".",".",".","."],[5,5,5,4,5,9,7,4,4,"|",".",".",".",".",".",".",".",".",5,4,".","."],[6,6,6,5,6,9,8,4,4,"|",4,6,5,6,5,6,5,6,6,4,4,4],[".",".",".",".",".",".",".",".",".","|",6,7,6,7,6,7,6,7,".",".",6,6],[".",".",".",".",".",".",".",".",".","|",".",".",".",".",".",".",".",".",".",".",".","."],[".",".",".",".",".",".",".",".",".","|",".",".",".",".",".",".",".",".",".",".",".","."]],[[".",".",".",".",".",".",".",".",".",".",".",".",".",".",".",".","|",".",".",".",".",".",".","."],[".",".",".",".",".",".",".",".",".",".",".",".",".",".",".",".","|",".",".",".",".",".",".","."],[".",".",".",".",".",".",".",".",".",".",".",".",".",".",".",".","|",8,8,6,6,4,4,2],[".",2,2,1,2,1,2,4,"/",6,4,2,".",".",".",2,"|",9,9,7,7,6,6,4],[2,".",".",".",".",".",".",".",".",".",".",".",4,2,4,".","|",".",".",".",".",".",".","."],[".",".",".",".",".",".",".",".",".",".",".",".",".",".",".",".","|",".",".",".",".",".",".","."]],[[7,"/",9,7,7,".",".",".",".",".",".",".",".","|",9,7,7,".",".",7,7,"|",7,"/",9,7,7,".",".",".",".",".",".",".","."],[".",".",".",".",".",9,9,7,7,".",7,".",".","|",".",".",".",9,9,".",".","|",".",".",".",".",".",9,9,7,7,".",7,".","."],[".",".",".",".",".",".",".",".",".",9,".",9,9,"|",".",".",".",".",".",".",".","|",".",".",".",".",".",".",".",".",".",9,".",9,9],[".",".",".",".",".",".",".",".",".",".",".",".",".","|",".",".",".",".",".",".",".","|",".",".",".",".",".",".",".",".",".",".",".",".","."],[".",".",".",".",".",".",".",".",".",".",".",".",".","|",".",".",".",".",".",".",".","|",".",".",".",".",".",".",".",".",".",".",".",".","."],[".",".",".",".",".",".",".",".",".",".",".",".",".","|",".",".",".",".",".",".",".","|",".",".",".",".",".",".",".",".",".",".",".",".","."]],[[".",".",".",".",".",".",".",".","|"],[".",5,7,5,7,".",4,5,"|"],[6,".",".",".",".",6,".",".","|"],[".",".",".",".",".",".",".",".","|"],[".",".",".",".",".",".",".",".","|"],[".",".",".",".",".",".",".",".","|"]]],"numberofstrings":6,"notes":["E","B","G","D","A","E","B"],"capo":0,"stringnotes":["E4","B3","G3","D3","A2","E2"],"comments":["Intro","Stave 2:","Stave 3:","Stave 4:","Stave 5:","Stave 6:","Stave 7:","Stave 8:","Stave 9:","Stave 10:","Stave 11:","2nd Chorus ","Stave 13:","Bridge 2nd time","Stave 15:","Stave 16:","Outro","Outro"],"timing":[["W","W","W","W","W","W","W","W",null,"W","W","W","W","W","W","W","W"],["W","W","W","W","W","W","W","W","W","W","W",null,"W","W","W","W","W",null,"W","W","W","W","W",null,"W","W","W","W","W","W","W","W","W","W","W"],["W","W","W","W","W","W","W","W",null,"W","W","W","W","W","W","W","W","W","W","W","W"],["W","W","W","W","W","W","W","W","W","W","W","W","W","W","W","W","W","W","W",null,"W","W","W","W","W","W","W","W"],["W","W","W","W","W","W","W","W","W",null,"W","W","W","W","W","W","W","W","W","W","W","W"],["W","W","W","W","W","W","W","W",null,"W","W","W","W","W","W","W",null,"W","W","W","W","W","W","W"],["W",null,"W","W","W","W","W","W","W","W","W","W","W",null,"W","W","W","W","W","W","W",null,"W",null,"W","W","W","W","W","W","W","W","W","W","W"],["W","W","W","W","W","W","W","W"],["W","W","W","W","W","W","W","W","W","W","W","W",null,"W","W","W","W","W","W","W",null,"W"],["W","W","W","W","W","W","W","W","W","W","W",null,"W","W","W","W","W","W","W","W","W","W"],["W","W","W","W","W","W","W","W","W","W","W",null,"W",null,"W","W","W","W","W","W","W","W"],["W","W","W","W","W","W","W","W","W","W","W",null,"W",null,"W","W","W","W","W","W","W","W","W","W"],["W","W","W","W","W","W","W","W","W","W","W","W",null,"W","W","W","W","W","W","W","W",null,"W"],["W","W","W","W","W","W","W","W","W","W","W",null,"W","W","W","W","W","W","W","W","W","W","W","W",null,"W","W","W","W"],["W","W","W","W","W","W","W","W","W","W","W","W","W",null,"W",null,"W","W","W","W","W","W","W","W","W","W","W"],["W","W","W","W","W","W","W","W",null,"W",null,"W",null,"W","W","W","W","W","W","W","W","W","W","W","W","W","W","W","W","W","W","W"],[],["W","W",null,"W","W",null,"W","W","W","W",null,"W","W","W","W",null,"W","W","W","W","W","W","W","W",null,"W","W","W","W","W"]],"timingvisible":false,"tabcounter":9,"stave":7,"totalstaves":8,"instrument":"6guitar","selectedtuning":"6_standard","version":"13"}

Member for

3 months
Submitted by millzy1955 on Tue, 2021-01-26 13:11