Born Free

01234567891011121314151617181920212223
E
B
G
D
A
E
B
0 1 2 3 4 5 6 7 8 9 10 11 12 13 14 15 16 17 18 19 20 21 22 23
(/) Slide Up  (\) Slide Down  (h) Hammer On  (p) Pull Off  (b) Bend (r) Release (v) Vibrato

Stave 1:

E|--1-----------------------|--------------------------------------|--1-----------------------
B|-----1--3--3--1-----------|--1--3--1-----5--1--------------------|-----1--3--3--1-----------
G|-----------------3--2-----|-----------3--------3--3--3--2--0-----|-----------------3--2-----
D|-----------------------3--|-----------------------------------3--|-----------------------3--
A|--------------------------|--------------------------------------|--------------------------
E|--------------------------|--------------------------------------|--------------------------

Stave 2:

E|----------------------------------------0--|--3--------------------1-----1--3--1-----
B|--1--3--1-----5--1--------------1--1h3-----|-----3--5--5--3--1--------------------3--
G|-----------3--------2--3--3--3-------------|--------------------2--------------------
D|-------------------------------------------|-----------------------------------------
A|-------------------------------------------|-----------------------------------------
E|-------------------------------------------|-----------------------------------------

Stave 3:

E|--1--1/3--1--1/3--1--1/3--1--1/3--1--1/3-----1--------------------------------------------1--1--1--
B|------------------------------------------------1--3--3--1-----------1--3--1-----5--1--------------
G|------------------------------------------------------------3--2--------------3--------2-----------
D|------------------------------------------------------------------3--------------------------------
A|---------------------------------------------------------------------------------------------------
E|---------------------------------------------------------------------------------------------------

Stave 4:

E|--13---------15--------------------------------------------15------12--12--------------13--
B|------13---------15--13----------------------------------------15----------15--13----------
G|-------------------------14--15-----15--15--14--12--10-----------------------------14------
D|-------------------------------------------------------------------------------------------
A|-------------------------------------------------------------------------------------------
E|-------------------------------------------------------------------------------------------

Stave 5:

E|--13--15--13------13--15--13--15--13--15--13--15-----1-----------------------------------------------
B|--------------15----------------------------------------1--3--3--1--------------1--3--1-----5--1-----
G|--------------------------------------------------------------------3--2-----------------3--------2--
D|--------------------------------------------------------------------------3--------------------------
A|-----------------------------------------------------------------------------------------------------
E|-----------------------------------------------------------------------------------------------------

Stave 6:

E|--1--1--13------15-----------------------------------------
B|------------13------15-----13------------------------------
G|-------------------------------14--15--15--15--14--12--10--
D|-----------------------------------------------------------
A|-----------------------------------------------------------
E|-----------------------------------------------------------

							http://www.guitartabcreator.com
Chords

Instruments
{"strings":[[[1,".",".",".",".",".",".",".","|",".",".",".",".",".",".",".",".",".",".",".",".","|",1,".",".",".",".",".",".","."],[".",1,3,3,1,".",".",".","|",1,3,1,".",5,1,".",".",".",".",".",".","|",".",1,3,3,1,".",".","."],[".",".",".",".",".",3,2,".","|",".",".",".",3,".",".",3,3,3,2,0,".","|",".",".",".",".",".",3,2,"."],[".",".",".",".",".",".",".",3,"|",".",".",".",".",".",".",".",".",".",".",".",3,"|",".",".",".",".",".",".",".",3],[".",".",".",".",".",".",".",".","|",".",".",".",".",".",".",".",".",".",".",".",".","|",".",".",".",".",".",".",".","."],[".",".",".",".",".",".",".",".","|",".",".",".",".",".",".",".",".",".",".",".",".","|",".",".",".",".",".",".",".","."]],[[".",".",".",".",".",".",".",".",".",".",".",".",".",".",0,"|",3,".",".",".",".",".",".",1,"_",1,3,1,"."],[1,3,1,".",5,1,".",".",".",".",1,1,"h",3,".","|",".",3,5,5,3,1,".",".","_",".",".",".",3],[".",".",".",3,".",".",2,3,3,3,".",".",".",".",".","|",".",".",".",".",".",".",2,".","_",".",".",".","."],[".",".",".",".",".",".",".",".",".",".",".",".",".",".",".","|",".",".",".",".",".",".",".",".","_",".",".",".","."],[".",".",".",".",".",".",".",".",".",".",".",".",".",".",".","|",".",".",".",".",".",".",".",".","_",".",".",".","."],[".",".",".",".",".",".",".",".",".",".",".",".",".",".",".","|",".",".",".",".",".",".",".",".","_",".",".",".","."]],[[1,1,"/",3,1,1,"/",3,1,1,"/",3,1,1,"/",3,1,1,"/",3,"_",1,".",".",".",".",".",".",".",".",".",".",".",".",".",".",1,1,1],[".",".",".",".",".",".",".",".",".",".",".",".",".",".",".",".",".",".",".",".","_",".",1,3,3,1,".",".",".",1,3,1,".",5,1,".",".",".","."],[".",".",".",".",".",".",".",".",".",".",".",".",".",".",".",".",".",".",".",".","_",".",".",".",".",".",3,2,".",".",".",".",3,".",".",2,".",".","."],[".",".",".",".",".",".",".",".",".",".",".",".",".",".",".",".",".",".",".",".","_",".",".",".",".",".",".",".",3,".",".",".",".",".",".",".",".",".","."],[".",".",".",".",".",".",".",".",".",".",".",".",".",".",".",".",".",".",".",".","_",".",".",".",".",".",".",".",".",".",".",".",".",".",".",".",".",".","."],[".",".",".",".",".",".",".",".",".",".",".",".",".",".",".",".",".",".",".",".","_",".",".",".",".",".",".",".",".",".",".",".",".",".",".",".",".",".","."]],[[13,".","_",15,".",".",".",".","_",".",".",".",".",".","_",15,".",12,12,".",".",".",13],[".",13,"_",".",15,13,".",".","_",".",".",".",".",".","_",".",15,".",".",15,13,".","."],[".",".","_",".",".",".",14,15,"_",15,15,14,12,10,"_",".",".",".",".",".",".",14,"."],[".",".","_",".",".",".",".",".","_",".",".",".",".",".","_",".",".",".",".",".",".",".","."],[".",".","_",".",".",".",".",".","_",".",".",".",".",".","_",".",".",".",".",".",".",".","."],[".",".","_",".",".",".",".",".","_",".",".",".",".",".","_",".",".",".",".",".",".",".","."]],[[13,15,13,".",13,15,13,15,13,15,13,15,"_",1,".",".",".",".",".",".",".","_",".",".",".",".",".",".","."],[".",".",".",15,".",".",".",".",".",".",".",".","_",".",1,3,3,1,".",".",".","_",1,3,1,".",5,1,"."],[".",".",".",".",".",".",".",".",".",".",".",".","_",".",".",".",".",".",3,2,".","_",".",".",".",3,".",".",2],[".",".",".",".",".",".",".",".",".",".",".",".","_",".",".",".",".",".",".",".",3,"_",".",".",".",".",".",".","."],[".",".",".",".",".",".",".",".",".",".",".",".","_",".",".",".",".",".",".",".",".","_",".",".",".",".",".",".","."],[".",".",".",".",".",".",".",".",".",".",".",".","_",".",".",".",".",".",".",".",".","_",".",".",".",".",".",".","."]],[[1,1,13,".",15,".","_",".",".",".",".",".",".",".","."],[".",".",".",13,".",15,"_",13,".",".",".",".",".",".","."],[".",".",".",".",".",".","_",".",14,15,15,15,14,12,10],[".",".",".",".",".",".","_",".",".",".",".",".",".",".","."],[".",".",".",".",".",".","_",".",".",".",".",".",".",".","."],[".",".",".",".",".",".","_",".",".",".",".",".",".",".","."]]],"numberofstrings":6,"notes":["E","B","G","D","A","E","B"],"capo":0,"stringnotes":["E4","B3","G3","D3","A2","E2"],"comments":["Stave 1:","Stave 2:","Stave 3:","Stave 4:","Stave 5:","Stave 6:"],"timing":[["W","W","W","W","W","W","W","W",null,"W","W","W","W","W","W","W","W","W","W","W","W",null,"W","W","W","W","W","W","W","W"],["W","W","W","W","W","W","W","W","W","W","W","W",null,"W","W",null,"W","W","W","W","W","W","W","W",null,"W","W","W","W","W","W",null,"W","W"],["W","W",null,"W","W","W",null,"W","W","W",null,"W","W","W",null,"W","W","W",null,"W",null,"W","W","W","W","W","W","W","W","W","W","W","W","W","W","W","W","W","W","W"],["W","W",null,"W","W","W","W","W",null,"W","W","W","W","W",null,"W","W","W","W","W","W","W","W"],["W","W","W","W","W","W","W","W","W","W","W","W",null,"W","W","W","W","W","W","W","W",null,"W","W","W","W","W","W","W"],["W","W","W","W","W","W",null,"W","W","W","W","W","W","W","W"]],"timingvisible":false,"tabcounter":15,"stave":5,"totalstaves":6,"instrument":"6guitar","selectedtuning":"6_standard","version":"13"}

Member for

2 months
Submitted by millzy1955 on Mon, 2020-11-30 12:02