Atlantis (The Shadows)

01234567891011121314151617181920212223
E
B
G
D
A
E
B
0 1 2 3 4 5 6 7 8 9 10 11 12 13 14 15 16 17 18 19 20 21 22 23
(/) Slide Up  (\) Slide Down  (h) Hammer On  (p) Pull Off  (b) Bend (r) Release (v) Vibrato

Stave 1:

E|------------------------------15--12----------------------13----------------------
B|----------13--13--13--13--13----------13--11--11--11--11--------------11--10------
G|--14--15------------------------------------------------------10--12----------12--
D|----------------------------------------------------------------------------------
A|----------------------------------------------------------------------------------
E|----------------------------------------------------------------------------------

Stave 2:

E|------------------------------15--12----------------------13----------
B|----------13--13--13--13--13----------13--11--11--11--11--------------
G|--14--15------------------------------------------------------10--12--
D|----------------------------------------------------------------------
A|----------------------------------------------------------------------
E|----------------------------------------------------------------------

Stave 3:

E|--------------------------|----------------------------------|-----------|-----------
B|--------------------------|----------------3-----------------|-----------|--3--------
G|-----------------2--5-----|--3/5--3--3--5-----5--2-----------|--2--------|-----4-----
D|--------2--3--5--------5--|-------------------------3-----5--|-----2--4--|--------5--
A|--3--5--------------------|----------------------------3-----|-----------|-----------
E|--------------------------|----------------------------------|-----------|-----------

Stave 4:

E|--------------------------|----------------------------|--------------------------
B|--5--3--------------------|--3-------------------------|--------------------------
G|--------5--5--4--2--------|-----5--3--3--2-------------|-----------------2--5-----
D|--------------------5--3--|-----------------5--3/5--5--|--------2--3--5--------5--
A|--------------------------|----------------------------|--3--5--------------------
E|--------------------------|----------------------------|--------------------------

Stave 5:

E|----------------------------------|-----------|-----------|--------------------------
B|----------------3-----------------|-----------|--3--------|--5--3--------------------
G|--3/5--3--3--5-----5--2-----------|--2--------|-----4-----|--------5--5--4--2--------
D|-------------------------3-----5--|-----2-----|--------5--|--------------------5--3--
A|----------------------------3-----|--------4--|-----------|--------------------------
E|----------------------------------|-----------|-----------|--------------------------

Stave 6:

E|----------------------------------------
B|--3-------------------------------------
G|-----5--3--3--2-------------------------
D|-----------------5--3/5--5--7--5-----5--
A|----------------------------------8-----
E|----------------------------------------

Stave 7:

E|-----------------5--8-----|---------------------10----------------------|-------------|--------------
B|--------5--6--8--------8--|--11/13--11--11--13------13--10--------------|--10---------|--15--12------
G|--5--7--------------------|---------------------------------10------12--|------9--11--|----------12--
D|--------------------------|-------------------------------------10------|-------------|--------------
A|--------------------------|---------------------------------------------|-------------|--------------
E|--------------------------|---------------------------------------------|-------------|--------------

Stave 8:

E|--12--10--------------------------|--10---------------------------------
B|----------13--13--12--10----------|------13--11--11--10-----------------
G|--------------------------12--10--|----------------------12--10/12--12--
D|----------------------------------|-------------------------------------
A|----------------------------------|-------------------------------------
E|----------------------------------|-------------------------------------

Stave 9:

E|----------------------------------|----------------------8---8---6--6--8---8---
B|--------4--6/8--6--6--------6--6--|--------------4--6/8--10--10--8--8--10--10--
G|-----3----------------5--5--------|--5--5-----3--3-----------------------------
D|--5-------------------------------|--------5--5--5-----------------------------
A|----------------------------------|--------------------------------------------
E|----------------------------------|--------------------------------------------

Stave 10:

E|--6--6--8--8--15--15--17--17--
B|--8--8--8--8--17--17--18--18--
G|------------------------------
D|------------------------------
A|------------------------------
E|------------------------------

							http://www.guitartabcreator.com
Chords

Instruments
{"strings":[[[".",".",".",".",".",".",".",15,12,".",".",".",".",".",13,".",".",".",".","."],[".",".",13,13,13,13,13,".",".",13,11,11,11,11,".",".",".",11,10,"."],[14,15,".",".",".",".",".",".",".",".",".",".",".",".",".",10,12,".",".",12],[".",".",".",".",".",".",".",".",".",".",".",".",".",".",".",".",".",".",".","."],[".",".",".",".",".",".",".",".",".",".",".",".",".",".",".",".",".",".",".","."],[".",".",".",".",".",".",".",".",".",".",".",".",".",".",".",".",".",".",".","."]],[[".",".",".",".",".",".",".",15,12,".",".",".",".",".",13,".","."],[".",".",13,13,13,13,13,".",".",13,11,11,11,11,".",".","."],[14,15,".",".",".",".",".",".",".",".",".",".",".",".",".",10,12],[".",".",".",".",".",".",".",".",".",".",".",".",".",".",".",".","."],[".",".",".",".",".",".",".",".",".",".",".",".",".",".",".",".","."],[".",".",".",".",".",".",".",".",".",".",".",".",".",".",".",".","."]],[[".",".",".",".",".",".",".",".","|",".",".",".",".",".",".",".",".",".",".",".",".","|",".",".",".","|",".",".","."],[".",".",".",".",".",".",".",".","|",".",".",".",".",".",".",3,".",".",".",".",".","|",".",".",".","|",3,".","."],[".",".",".",".",".",2,5,".","|",3,"/",5,3,3,5,".",5,2,".",".",".","|",2,".",".","|",".",4,"."],[".",".",2,3,5,".",".",5,"|",".",".",".",".",".",".",".",".",".",3,".",5,"|",".",2,4,"|",".",".",5],[3,5,".",".",".",".",".",".","|",".",".",".",".",".",".",".",".",".",".",3,".","|",".",".",".","|",".",".","."],[".",".",".",".",".",".",".",".","|",".",".",".",".",".",".",".",".",".",".",".",".","|",".",".",".","|",".",".","."]],[[".",".",".",".",".",".",".",".","|",".",".",".",".",".",".",".",".",".",".","|",".",".",".",".",".",".",".","."],[5,3,".",".",".",".",".",".","|",3,".",".",".",".",".",".",".",".",".","|",".",".",".",".",".",".",".","."],[".",".",5,5,4,2,".",".","|",".",5,3,3,2,".",".",".",".",".","|",".",".",".",".",".",2,5,"."],[".",".",".",".",".",".",5,3,"|",".",".",".",".",".",5,3,"/",5,5,"|",".",".",2,3,5,".",".",5],[".",".",".",".",".",".",".",".","|",".",".",".",".",".",".",".",".",".",".","|",3,5,".",".",".",".",".","."],[".",".",".",".",".",".",".",".","|",".",".",".",".",".",".",".",".",".",".","|",".",".",".",".",".",".",".","."]],[[".",".",".",".",".",".",".",".",".",".",".",".","|",".",".",".","|",".",".",".","|",".",".",".",".",".",".",".","."],[".",".",".",".",".",".",3,".",".",".",".",".","|",".",".",".","|",3,".",".","|",5,3,".",".",".",".",".","."],[3,"/",5,3,3,5,".",5,2,".",".",".","|",2,".",".","|",".",4,".","|",".",".",5,5,4,2,".","."],[".",".",".",".",".",".",".",".",".",3,".",5,"|",".",2,".","|",".",".",5,"|",".",".",".",".",".",".",5,3],[".",".",".",".",".",".",".",".",".",".",3,".","|",".",".",4,"|",".",".",".","|",".",".",".",".",".",".",".","."],[".",".",".",".",".",".",".",".",".",".",".",".","|",".",".",".","|",".",".",".","|",".",".",".",".",".",".",".","."]],[[".",".",".",".",".",".",".",".",".",".",".",".",".","."],[3,".",".",".",".",".",".",".",".",".",".",".",".","."],[".",5,3,3,2,".",".",".",".",".",".",".",".","."],[".",".",".",".",".",5,3,"/",5,5,7,5,".",5],[".",".",".",".",".",".",".",".",".",".",".",".",8,"."],[".",".",".",".",".",".",".",".",".",".",".",".",".","."]],[[".",".",".",".",".",5,8,".","|",".",".",".",".",".",".",10,".",".",".",".",".","|",".",".",".","|",".",".","."],[".",".",5,6,8,".",".",8,"|",11,"/",13,11,11,13,".",13,10,".",".",".","|",10,".",".","|",15,12,"."],[5,7,".",".",".",".",".",".","|",".",".",".",".",".",".",".",".",".",10,".",12,"|",".",9,11,"|",".",".",12],[".",".",".",".",".",".",".",".","|",".",".",".",".",".",".",".",".",".",".",10,".","|",".",".",".","|",".",".","."],[".",".",".",".",".",".",".",".","|",".",".",".",".",".",".",".",".",".",".",".",".","|",".",".",".","|",".",".","."],[".",".",".",".",".",".",".",".","|",".",".",".",".",".",".",".",".",".",".",".",".","|",".",".",".","|",".",".","."]],[[12,10,".",".",".",".",".",".","|",10,".",".",".",".",".",".",".",".","."],[".",".",13,13,12,10,".",".","|",".",13,11,11,10,".",".",".",".","."],[".",".",".",".",".",".",12,10,"|",".",".",".",".",".",12,10,"/",12,12],[".",".",".",".",".",".",".",".","|",".",".",".",".",".",".",".",".",".","."],[".",".",".",".",".",".",".",".","|",".",".",".",".",".",".",".",".",".","."],[".",".",".",".",".",".",".",".","|",".",".",".",".",".",".",".",".",".","."]],[[".",".",".",".",".",".",".",".",".",".",".",".","|",".",".",".",".",".",".",".",".",8,8,6,6,8,8],[".",".",4,6,"/",8,6,6,".",".",6,6,"|",".",".",".",".",4,6,"/",8,10,10,8,8,10,10],[".",3,".",".",".",".",".",".",5,5,".",".","|",5,5,".",3,3,".",".",".",".",".",".",".",".","."],[5,".",".",".",".",".",".",".",".",".",".",".","|",".",".",5,5,5,".",".",".",".",".",".",".",".","."],[".",".",".",".",".",".",".",".",".",".",".",".","|",".",".",".",".",".",".",".",".",".",".",".",".",".","."],[".",".",".",".",".",".",".",".",".",".",".",".","|",".",".",".",".",".",".",".",".",".",".",".",".",".","."]],[[6,6,8,8,15,15,17,17],[8,8,8,8,17,17,18,18],[".",".",".",".",".",".",".","."],[".",".",".",".",".",".",".","."],[".",".",".",".",".",".",".","."],[".",".",".",".",".",".",".","."]]],"numberofstrings":6,"notes":["E","B","G","D","A","E","B"],"capo":0,"stringnotes":["E4","B3","G3","D3","A2","E2"],"comments":["Stave 1:","Stave 2:","Stave 3:","Stave 4:","Stave 5:","Stave 6:","Stave 7:","Stave 8:","Stave 9:","Stave 10:"],"timing":[["W","W","W","W","W","W","W","W","W","W","W","W","W","W","W","W","W","W","W","W"],["W","W","W","W","W","W","W","W","W","W","W","W","W","W","W","W","W"],["W","W","W","W","W","W","W","W",null,"W",null,"W","W","W","W","W","W","W","W","W","W",null,"W","W","W",null,"W","W","W"],["W","W","W","W","W","W","W","W",null,"W","W","W","W","W","W","W","W","W","W",null,"W","W","W","W","W","W","W","W"],["W","W","W","W","W","W","W","W","W","W","W","W",null,"W","W","W",null,"W","W","W",null,"W","W","W","W","W","W","W","W"],["W","W","W","W","W","W","W",null,"W","W","W","W","W","W"],["W","W","W","W","W","W","W","W",null,"W",null,"W","W","W","W","W","W","W","W","W","W",null,"W","W","W",null,"W","W","W"],["W","W","W","W","W","W","W","W",null,"W","W","W","W","W","W","W",null,"W","W"],["W","W","W","W",null,"W","W","W","W","W","W","W","W","W","W","W","W","W","W",null,"W","W","W","W","W","W","W","W"],["W","W","W","W","W","W","W","W"]],"timingvisible":false,"tabcounter":7,"stave":9,"totalstaves":10,"instrument":"6guitar","selectedtuning":"6_standard","version":"13"}

Member for

2 months 1 week
Submitted by millzy1955 on Mon, 2020-11-30 12:31