kaikai kitan second half of chorus

01234567891011121314151617181920212223
E
B
G
D
A
E
B
0 1 2 3 4 5 6 7 8 9 10 11 12 13 14 15 16 17 18 19 20 21 22 23
(/) Slide Up  (\) Slide Down  (h) Hammer On  (p) Pull Off  (b) Bend (r) Release (v) Vibrato

Stave 1:

E|------------------------------------------------------------------------------------------------------------------------------
B|------------------------------------------------------------------------------------------------------------------------------
G|--------------15--14--15-----------------15--14--15---------------------12------12------12-----12------12-----12--12--14--15--
D|----------------------------------------------------------------------------15------15-------------15-------------------------
A|--13--13--13-----------------13--13--13-----------------13--13--13--13--------------------------------------------------------
E|------------------------------------------------------------------------------------------------------------------------------

Stave 2:

E|--10---------------------------------------------------------------------------------------------------------
B|------13--11--13--11--10--------------11---------------------------------------------------------------------
G|--------------------------12--10--12-------------------------15--14--12--14--12--11--12--11--11--12--14--15--
D|-------------------------------------------------------------------------------------------------------------
A|---------------------------------------------13--13--13--13--------------------------------------------------
E|-------------------------------------------------------------------------------------------------------------

Stave 3:

E|--------------------------------------------------------------------------------------------------------------
B|--------------------------------------------------------------------------------------------------------------
G|------------------------------------------------12------------------------------------------------------------
D|---------------------15--15-----------------12------12-------------13--13--15---------------------10--12--10--
A|--13--13--15-----13-------------13--13--13--------------15--13-----------------10--13-----13--13--------------
E|--------------------------------------------------------------------------------------------------------------

							http://www.guitartabcreator.com
Chords

Instruments
{"strings":[[[".",".",".",".",".",".","_",".",".",".",".",".",".","_",".",".",".",".",".",".",".",".",".","_",".",".",".","_",".",".",".","."],[".",".",".",".",".",".","_",".",".",".",".",".",".","_",".",".",".",".",".",".",".",".",".","_",".",".",".","_",".",".",".","."],[".",".",".",15,14,15,"_",".",".",".",15,14,15,"_",".",".",".",".",12,".",12,".",12,"_",12,".",12,"_",12,12,14,15],[".",".",".",".",".",".","_",".",".",".",".",".",".","_",".",".",".",".",".",15,".",15,".","_",".",15,".","_",".",".",".","."],[13,13,13,".",".",".","_",13,13,13,".",".",".","_",13,13,13,13,".",".",".",".",".","_",".",".",".","_",".",".",".","."],[".",".",".",".",".",".","_",".",".",".",".",".",".","_",".",".",".",".",".",".",".",".",".","_",".",".",".","_",".",".",".","."]],[[10,".",".",".",".",".",".",".",".",".","_",".",".",".",".",".",".",".",".",".",".",".",".",".",".",".","."],[".",13,11,13,11,10,".",".",".",11,"_",".",".",".",".",".",".",".",".",".",".",".",".",".",".",".","."],[".",".",".",".",".",".",12,10,12,".","_",".",".",".",".",15,14,12,14,12,11,12,11,11,12,14,15],[".",".",".",".",".",".",".",".",".",".","_",".",".",".",".",".",".",".",".",".",".",".",".",".",".",".","."],[".",".",".",".",".",".",".",".",".",".","_",13,13,13,13,".",".",".",".",".",".",".",".",".",".",".","."],[".",".",".",".",".",".",".",".",".",".","_",".",".",".",".",".",".",".",".",".",".",".",".",".",".",".","."]],[[".",".",".","_",".",".",".","_",".",".",".",".",".",".",".",".","_",".",".",".",".",".","_",".",".",".",".","."],[".",".",".","_",".",".",".","_",".",".",".",".",".",".",".",".","_",".",".",".",".",".","_",".",".",".",".","."],[".",".",".","_",".",".",".","_",".",".",".",".",12,".",".",".","_",".",".",".",".",".","_",".",".",".",".","."],[".",".",".","_",".",15,15,"_",".",".",".",12,".",12,".",".","_",13,13,15,".",".","_",".",".",10,12,10],[13,13,15,"_",13,".",".","_",13,13,13,".",".",".",15,13,"_",".",".",".",10,13,"_",13,13,".",".","."],[".",".",".","_",".",".",".","_",".",".",".",".",".",".",".",".","_",".",".",".",".",".","_",".",".",".",".","."]]],"numberofstrings":6,"notes":["E","B","G","D","A","E","B"],"capo":0,"stringnotes":["E4","B3","G3","D3","A2","E2"],"comments":["Stave 1:","Stave 2:","Stave 3:"],"timing":[["W","W","W","W","W","W","W","W","W","W","W","W","W","W","W","W","W","W","W","W","W","W","W","W","W","W","W","W","W","W","W","W"],["W","W","W","W","W","W","W","W","W","W","W","W","W","W","W","W","W","W","W","W","W","W","W","W","W","W","W"],["W","W","W","W","W","W","W","W","W","W","W","W","W","W","W","W","W","W","W","W","W","W","W","W","W","W","W","W"]],"timingvisible":false,"tabcounter":28,"stave":2,"totalstaves":3,"instrument":"6guitar","selectedtuning":"6_standard","version":"13"}

Member for

1 year 3 months
Submitted by milkhatersinc on Wed, 2021-08-04 20:08