Sound will begin in 5 seconds

God Sauce

01234567891011121314151617181920212223
E
B
G
D
A
E
B
0 1 2 3 4 5 6 7 8 9 10 11 12 13 14 15 16 17 18 19 20 21 22 23
Song Science #1: How Pros Use 6 Chords to Write Hit Songs
(/) Slide Up  (\) Slide Down  (h) Hammer On  (p) Pull Off  (b) Bend (r) Release (v) Vibrato

Stave 1:

Db|---------------------------------------------------------------------------------------
Ab|---------------------------------------------------------------------------------------
E |---------------------------------------------------------------------------------------
B |---------------------------------------------------------------------------------------
Gb|---------------------------------------------------------------------------------------
B |----1--0--0----0--0--0----1--0--0----0--0--0----1--0--0----0--0--0--1/2--2--2/3--3--4--

Stave 2:

Db|-------------------------------------------------------------------------------------------
Ab|-------------------------------------------------------------------------------------------
E |-------------------------------------------------------------------------------------------
B |-------------------------------------------------------------------------------------------
Gb|-------------------------------------------------------------------------------------------
B |----2--1--1----1--1--1----3--1--1----1--1--1----4--1--1----1--1--1----0--1--2--4--2--1--0--

Stave 3:

Db|------------------------------------
Ab|------------------------------------
E |-------11-----12-----8-----8-----9--
B |-------11-----12-----8-----8-----9--
Gb|-------9---0--10--0--6--0--6--0--7--
B |----0-------------------------------

Stave 4:

Db|----
Ab|----
E |----
B |----
Gb|----
B |----

Stave 5:

Db|----
Ab|----
E |----
B |----
Gb|----
B |----

Stave 6:

Db|----
Ab|----
E |----
B |----
Gb|----
B |----

Stave 7:

Db|----
Ab|----
E |----
B |----
Gb|----
B |----

Stave 8:

Db|----
Ab|----
E |----
B |----
Gb|----
B |----

Stave 9:

Db|----
Ab|----
E |----
B |----
Gb|----
B |----

Stave 10:

Db|----
Ab|----
E |----
B |----
Gb|----
B |----

Stave 11:

Db|----
Ab|----
E |----
B |----
Gb|----
B |----

Stave 12:

Db|-----
Ab|-----
E |-----
B |-----
Gb|-----
B |--1--

http://www.guitartabcreator.com
Guitar Tab Creator is intended to store guitar tab created through the tool. It currently does not support in-line text editing. Any text you place in here will be lost. If you need to comment on your tab, please use the "Tab Notes" section located below.