Sound will begin in 5 seconds

Secret Place

01234567891011121314151617181920212223
E
B
G
D
A
E
B
0 1 2 3 4 5 6 7 8 9 10 11 12 13 14 15 16 17 18 19 20 21 22 23
Song Science #1: How Pros Use 6 Chords to Write Hit Songs
(/) Slide Up  (\) Slide Down  (h) Hammer On  (p) Pull Off  (b) Bend (r) Release (v) Vibrato

Stave 1:

B |-------------------------------------------------------------------------------------------------|-
Gb|-------------------------------------------------------------------------------------------------|-
D |-------7-7-7-------7-7-7-------7-7-7-------7-7-7-------7-7-7-------7-7-7-------7-7-7-------7-7-7-|-
A |-------------------------------------------------------------------------------------------------|-
E |-7-7-7-------7-7-7-------7-7-7-------7-7-7-------------------------------------------------------|-
B |-------------------------------------------------8-8-8-------8-8-8-------8-8-8-------8-8-8-------|-

Stave 2:

B |-------------------------------------------------------------------------------------------------|-
Gb|-------------------------------------------------------------------------------------------------|-
D |-------7-7-7-------7-7-7-------7-7-7-------7-7-7-------7-7-7-------7-7-7-------7-7-7-------7-7-7-|-
A |-------------------------------------------------------------------------------------------------|-
E |-------------------------------------------------------------------------------------------------|-
B |-5-5-5-------5-5-5-------5-5-5-------5-5-5-------8-8-8-------8-8-8-------8-8-8-------8-8-8-------|-

Stave 3:

B |-------------------------------------------------------------------------------------------------|-
Gb|-------------------------------------------------------------------------------------------------|-
D |-------7-7-7-------7-7-7-------7-7-7-------7-7-7-------7-7-7-------7-7-7-------7-7-7-------7-7-7-|-
A |-------------------------------------------------------------------------------------------------|-
E |-------------------------------------------------------------------------------------------------|-
B |-5-5-5-------5-5-5-------5-5-5-------5-5-5-------8-8-8-------8-8-8-------8-8-8-------8-8-8-------|-

Stave 4:

B |---------------|-
Gb|---------------|-
D |---------2-----|-
A |-9---7---2---5-|-
E |-7---5---0---3-|-
B |-0-------------|-

Stave 5:

B |-----------------------------------------------------|-
Gb|-----------------------------------------------------|-
D |-----------------------------------------------------|-
A |-----------------------------------------------------|-
E |---7---9---10---7---9---10---7---9---10---7---9---10-|-
B |-0---0---0----0---0---0----0---0---0----0---0---0----|-

Stave 6:

B |-----------------------------------------------------|-
Gb|-----------------------------------------------------|-
D |-----------------------------------------------------|-
A |---7---9---10---7---9---10---7---9---10---7---9---10-|-
E |-0---0---0----0---0---0----0---0---0----0---0---0----|-
B |-----------------------------------------------------|-

Stave 7:

B |-------------------------------------------------|-
Gb|-------------------------------------------------|-
D |-------------------------------------------------|-
A |---5---4-------5---4-------5---4-------5---4-----|-
E |-3---3---3-5-3---3---3-5-3---3---3-5-3---3---3-5-|-
B |-------------------------------------------------|-

Stave 8:

B |-------------------------------------------------|-
Gb|-------------------------------------------------|-
D |-------------------------------------------------|-
A |---5---4-------5---4-------5---4-------5---4-----|-
E |-----------5-----------5-----------5-----------5-|-
B |-0---0---0---0---0---0---0---0---0---0---0---0---|-

http://www.guitartabcreator.com
Guitar Tab Creator is intended to store guitar tab created through the tool. It currently does not support in-line text editing. Any text you place in here will be lost. If you need to comment on your tab, please use the "Tab Notes" section located below.