Sound will begin in 5 seconds

Behind Every Corner

01234567891011121314151617181920212223
E
B
G
D
A
E
B
0 1 2 3 4 5 6 7 8 9 10 11 12 13 14 15 16 17 18 19 20 21 22 23
Song Science #1: How Pros Use 6 Chords to Write Hit Songs
(/) Slide Up  (\) Slide Down  (h) Hammer On  (p) Pull Off  (b) Bend (r) Release (v) Vibrato

Stave 1:

B|-------------------------------------------------------------------------------|-
G|-------------------------------------------------------------------------------|-
D|---------12-12---------------12-12-----------------11-11-----------12-12-------|-
A|-----9-9-------9-9-----10-10-------10-10-----12-12-----------12-12-------12-12-|-
E|-------------------------------------------------------------------------------|-
B|-0-0---------------0-0-------------------0-0-------------0-0-------------------|-

Stave 2:

B|--0-0-0-|-
G|--0-2-6-|-
D|--2-0-7-|-
A|--2-0-7-|-
E|--0-2-5-|-
B|--------|-

Stave 3:

B|----------------------------------------|----------------------------------|-
G|----------------------------------------|----------------------------------|-
D|--12---11----------12---11--------------|-12---11--------------------------|-
A|------------9-10-------------9---10---9-|-----------9-10---10---9---10---9-|-
E|----------------------------------------|----0----0------0----0---0----0---|-
B|-----0----0------0----0----0---0----0---|----------------------------------|-

Stave 4:

B|---------------------------------|-------------------------------|-
G|-----7-------------7-------------|-----7-------------7-6---7-6---|-
D|-7-------7-----7-------7---7---7-|-7-------7-----7-------7-----7-|-
A|---------------------------------|-------------------------------|-
E|---------------------------------|-------------------------------|-
B|---7---7---7-7---7---7---7---7---|---8---8---8-8---8-------------|-

Stave 5:

B|---------------|-
G|---------2---2-|-
D|---------0---0-|-
A|-9--10---0---0-|-
E|-7--0----2---3-|-
B|-0-------------|-

Stave 6:

B|---------------------------------|---------------------------------|-
G|---------------------------------|---------------------------------|-
D|---------------------------------|-2-------2-------2-------2-------|-
A|-2-------2-------2-------2-------|---------------------------------|-
E|---------------------------------|---0-2-3---3-2-0---0-2-3---3-2-0-|-
B|---0-2-3---3-2-0---0-2-3---3-2-0-|---------------------------------|-

Stave 7:

B|--------------------------------|-----------------|----------------|-
G|--------------------------------|-----------------|-----7---6------|-
D|-----4--------------------------|---------7-------|-------------7v-|-
A|---------5---4---2---4---5---4v-|-----5-------5---|----------------|-
E|-2-2---2---2---2---2---2---2----|-3-3---3---3---3-|-5-5---5---5----|-
B|--------------------------------|-----------------|----------------|-

http://www.guitartabcreator.com
Guitar Tab Creator is intended to store guitar tab created through the tool. It currently does not support in-line text editing. Any text you place in here will be lost. If you need to comment on your tab, please use the "Tab Notes" section located below.