Sound will begin in 5 seconds

Bang, You're Dead

01234567891011121314151617181920212223
E
B
G
D
A
E
B
0 1 2 3 4 5 6 7 8 9 10 11 12 13 14 15 16 17 18 19 20 21 22 23
Song Science #1: How Pros Use 6 Chords to Write Hit Songs
(/) Slide Up  (\) Slide Down  (h) Hammer On  (p) Pull Off  (b) Bend (r) Release (v) Vibrato

Stave 1:

B |------------------------------------|-------------------------------------------|-
Gb|------------------------------------|-------------------------------------------|-
D |------------------------------------|-------------------------------------------|-
A |-------4-4-------4-4-------4-4--7-6-|-------4-4-------4-4-------4-4-------------|-
E |--------------------------------5-4-|-------------------------------------7-9-9-|-
B |-2-2-2-----2-2-2-----2-2-2----------|-2-2-2-----2-2-2-----5-5-5-----0-0-0-------|-

Stave 2:

B |-------------|------------|------------|------------|-
Gb|-------------|------------|------------|------------|-
D |-------------|----------9-|------------|------------|-
A |--7--9--11-7-|-7--9--11-7-|-7--9--11-7-|-7----------|-
E |--5--7--9--4-|-5--7--9----|-5--7--9--4-|-5------4-5-|-
B |-------------|------------|------------|----0-0-1-1-|-

Stave 3:

B |---------------------|---------------------|-
Gb|---------------------|---------------------|-
D |-----6---7-----------|-----6---7-------6-6-|-
A |-4---6---7---7---9---|-4---6---7---7-7-6-6-|-
E |-4---4---5---7---7---|-4---4---5---7-7-4-4-|-
B |-2-----------5---0---|-2-----------5-5-----|-

Stave 4:

B |-------------|-
Gb|-------------|-
D |-----7---6---|-
A |-4---7---6-3-|-
E |-4---5---4-4-|-
B |-2---------1-|-

Stave 5:

B |-------------------------------------------------|-
Gb|-------------------------------------------------|-
D |-------------------------------------------------|-
A |-------------------------------5-----------------|-
E |-----------------------------5---5---------------|-
B |-2-1-2-3-2-0-2-0-2-3-2-0-3-6-------6-3-6-3-0-0-0-|-

Stave 6:

B |----------------|-
Gb|----------------|-
D |-11---9---4---7-|-
A |----------------|-
E |-9----7---2---5-|-
B |----------------|-

http://www.guitartabcreator.com
Guitar Tab Creator is intended to store guitar tab created through the tool. It currently does not support in-line text editing. Any text you place in here will be lost. If you need to comment on your tab, please use the "Tab Notes" section located below.