Sound will begin in 5 seconds

Kárpátia - Gyógyulj meg

01234567891011121314151617181920212223
E
B
G
D
A
E
B
0 1 2 3 4 5 6 7 8 9 10 11 12 13 14 15 16 17 18 19 20 21 22 23
Song Science #1: How Pros Use 6 Chords to Write Hit Songs
(/) Slide Up  (\) Slide Down  (h) Hammer On  (p) Pull Off  (b) Bend (r) Release (v) Vibrato

(W|WW) Whole (H|HH) Half (Q|QQ) Quarter (E|EE) 8th (S|SS) 16th (T|TT) 32nd (X|XX) 64th

Stave 1:
t:
E|-----------------------------------
B|-----------------------------------
G|-----------------------------------
D|-----------------------------------
A|--7--7--7--7--5--5--5--3--3--3--3--
E|--5--5--5--5--3--3--3--1--1--1--1--

Stave 2:
t: undefined undefined
E|--------------------------------------------------------------------------------------------------------
B|---------------------10/12--10-------------------------------------------------10/12--10----------------
G|-----9------------9---------------9------------9--10/12--10----9------------9-------------12--10--9--7--
D|--------7--9--10---------------------7--9--10---------------------7--9--10------------------------------
A|--------------------------------------------------------------------------------------------------------
E|--------------------------------------------------------------------------------------------------------

Stave 3:
t: undefined undefined undefined undefined undefined
E|------------------------------------------------------------------------------------
B|------------------------------------------------------------------------------------
G|------------------------------------------------------------------------------------
D|------------------------------5--5--5----7--7--7--7--9------------------------------
A|--7--7--7----3--3--3--3--3----3--3--3----5--5--5--5--7----7--7--7----7--7--7--7--5--
E|--5--5--5----1--1--1--1--1--------------------------------5--5--5----5--5--5--5--3--

Stave 4:
t: undefined
E|------------------------------------------------------------------------------------------------------------------------------------------------------------
B|------------------------------------------------------------------------------------------------------------------------------------------------------------
G|------------------------------------------------------------------------------------------------------------------------------------------------------------
D|---------------------------------------------------------------------------7--7--7--7--7--7--7--7-----------------------------------------------------------
A|--7--7--7--7/5--5--5--5----7--7--7--7--7--7--7--7--5--5--5--5--5--5--5--5--5--5--5--5--5--5--5--5--3--3--3--3--3--3--3--3--7--7--7--7--7--7--7--7-----------
E|--5--5--5--5-3--3--3--3----5--5--5--5--5--5--5--5--3--3--3--3--3--3--3--3--------------------------1--1--1--1--1--1--1--1--5--5--5--5--5--5--5--5-----------

Stave 5:
t:
E|--------------------------------------------------------------------------
B|--------------------------------------------------------------------------
G|--------------------------------------------------------------------------
D|--------------------------------------------------------------------------
A|--5--5--5--5--5--5--5--5--3--3--3--3--3--3--3--3--3--3--3--3--3--3--3--3--
E|--3--3--3--3--3--3--3--3--1--1--1--1--1--1--1--1--1--1--1--1--1--1--1--1--

Stave 6:
t:
E|-------------------------------------------------------------------------------------------------------
B|-------------------------------------------------------------------------------------------------------
G|-------------------------------------------------------------------------------------------------------
D|--7--7--7--7--7--7--7--7-------------------------------------------------------------------------------
A|--5--5--5--5--5--5--5--5--3--3--3--3--3--3--3--3--7--7--7--7--7--7--7--7--7--7--7--7--7--7--7----3--2--
E|--------------------------1--1--1--1--1--1--1--1--5--5--5--5--5--5--5--5--5--5--5--5--5--5--5----1--0--

http://www.guitartabcreator.com
Guitar Tab Creator is intended to store guitar tab created through the tool. It currently does not support in-line text editing. Any text you place in here will be lost. If you need to comment on your tab, please use the "Tab Notes" section located below.