Sound will begin in 5 seconds

Mirrors - Justin Timberlake

01234567891011121314151617181920212223
E
B
G
D
A
E
B
0 1 2 3 4 5 6 7 8 9 10 11 12 13 14 15 16 17 18 19 20 21 22 23
Song Science #1: How Pros Use 6 Chords to Write Hit Songs
(/) Slide Up  (\) Slide Down  (h) Hammer On  (p) Pull Off  (b) Bend (r) Release (v) Vibrato

Stave 1:

E|----------------|-----------------|------------|---------------------|-----------|--
B|----------------|-----------------|------------|---------------------|-----------|--
G|-------6--7-----|-----7--6--------|------------|---------------------|-----------|--
D|--8/9-----------|-----------------|---------9--|------------------9--|--9--9--9--|--
A|-------------9--|--9--------9--7--|--7---------|--7--------7---------|-----------|--
E|----------------|-----------------|-----10-----|-----0--0-----10-----|-----------|--

Stave 2:

E|--------------|-----------------|------------|---------------------|-----------|--
B|--------------|-----------------|------------|---------------------|-----------|--
G|-----6--7-----|-----7--6--------|------------|---------------------|-----------|--
D|--9-----------|-----------------|---------9--|------------------9--|--9--9--9--|--
A|-----------9--|--9--------9--7--|--7---------|--7--------7---------|-----------|--
E|--------------|-----------------|-----10-----|-----0--0-----10-----|-----------|--

Stave 3:

E|--------------|--------|-----------------|------------|---------------------|-----------|--
B|--------------|--------|-----------------|------------|---------------------|-----------|--
G|-----6--7--9--|--9/11--|-----7--6--------|--7---------|---------------------|-----------|--
D|--9-----------|--------|-----------------|---------9--|------------------9--|-----------|--
A|--------------|--------|--9--------9--7--|------------|--7--------7---------|--9--9--9--|--
E|--------------|--------|-----------------|-----10-----|-----0--0-----10-----|-----------|--

Stave 4:

E|--------------|-----------------|------------|---------------------|-----------|--
B|--------------|-----------------|------------|---------------------|-----------|--
G|-----6--7-----|-----7--6--------|------------|---------------------|-----------|--
D|--9-----------|-----------------|---------9--|------------------9--|--9--9--9--|--
A|-----------9--|--9--------9--7--|--7---------|--7--------7---------|-----------|--
E|--------------|-----------------|-----10-----|-----0--0-----10-----|-----------|--

Stave 5:

E|----------------|-----------|-----------|-----------|----------|-----|--------------|--
B|----------------|-----------|-----------|-----------|----------|-----|--------------|--
G|-----6--7--7/9--|--9--7--9--|--9--7--9--|--9--7--9--|--9/11\9--|--b9r|--7-----7-----|--
D|--9-------------|-----------|-----------|-----------|----------|-----|-----9-----9--|--
A|----------------|-----------|-----------|-----------|----------|-----|--------------|--
E|----------------|-----------|-----------|-----------|----------|-----|--------------|--

Stave 6:

E|-----------|-------------|-----------|-----------|----------|-------------|--
B|-----------|-------------|-----------|-----------|----------|-------------|--
G|-----------|-----6--7/9--|--9--7--9--|--9--7--9--|--9/10\9--|--7-----7\3--|--
D|--9--9--9--|--9----------|-----------|-----------|----------|-----9-------|--
A|-----------|-------------|-----------|-----------|----------|-------------|--
E|-----------|-------------|-----------|-----------|----------|-------------|--

Stave 7:

E|---------------------------------|---------------------------------|--
B|---------------------------------|---------------------------------|--
G|--11--11--11--11--11--11--9--11--|------9--11--11--11--11--9--9\3--|--
D|---------------------------------|--12-----------------------------|--
A|---------------------------------|---------------------------------|--
E|---------------------------------|---------------------------------|--

Stave 8:

E|--------------------------------|----------------|----------|-----|----------|--
B|--------------------------------|----------------|----------|-----|----------|--
G|--11--11--11--11--11--9------11b|--11--9------9--|----------|-----|----------|--
D|-------------------------12-----|---------12-----|--12--11--|--9--|----------|--
A|--------------------------------|----------------|----------|-----|--12--10--|--
E|--------------------------------|----------------|----------|-----|----------|--

Stave 9:

E|--------------------------------|--------------|---------------|----------|--------------------
B|--------------------------------|--------------|---------------|----------|--------------------
G|--11--11--11--11--9------9--11--|--9------9\3--|--9--11--11b12r|--9h11r9--|------9------9------
D|---------------------12---------|-----12-------|---------------|----------|--12-----12-----12--
A|--------------------------------|--------------|---------------|----------|--------------------
E|--------------------------------|--------------|---------------|----------|--------------------

Stave 10:

E|--------------------|------------|----------|-----|------------|--
B|--------------------|------------|----------|-----|------------|--
G|--11--9------9--11--|--9------9--|----------|-----|------------|--
D|---------12---------|-----12-----|--12--11--|--9--|------------|--
A|--------------------|------------|----------|-----|--12--10\5--|--
E|--------------------|------------|----------|-----|------------|--

Stave 11:

E|-----------------------------|----------------------|--------------|--
B|-----------------------------|----------------------|--------------|--
G|--11--11--11--11------9--11--|--11--11--11--11--11--|--11--9--9\5--|--
D|------------------12---------|----------------------|--------------|--
A|-----------------------------|----------------------|--------------|--
E|-----------------------------|----------------------|--------------|--

Stave 12:

E|-----------------------------|----------------------|--------------|--
B|-----------------------------|----------------------|--------------|--
G|--11--11--11--11------9--11--|--11--11--11--11--11--|--11--9--9\5--|--
D|------------------12---------|----------------------|--------------|--
A|-----------------------------|----------------------|--------------|--
E|-----------------------------|----------------------|--------------|--

Stave 13:

E|-----------------------------|--------------|---------------|---------------|--
B|-----------------------------|--------------|---------------|---------------|--
G|--11--11--11--11------9--11--|--9------9\5--|--9--11--11b12r|--9h11p11------|--
D|------------------12---------|-----12-------|---------------|-----------12--|--
A|-----------------------------|--------------|---------------|---------------|--
E|-----------------------------|--------------|---------------|---------------|--

Stave 14:

E|-----------------------|--------------------|--------------------------|------------|-----
B|-----------------------|--------------------|--------------------------|------------|-----
G|--9------9------9------|--11--9------9--11--|--11--11--11--11--11--11--|--11--9--9--|-----
D|-----12-----12-----12--|---------12---------|--------------------------|------------|-----
A|-----------------------|--------------------|--------------------------|------------|-----
E|-----------------------|--------------------|--------------------------|------------|-----

Stave 15:

E|----------------------|--
B|----------------------|--
G|--11--11--11--9--9\5--|--
D|----------------------|--
A|----------------------|--
E|----------------------|--

Stave 16:

E|--------------|-----------------|------------|---------------------|-----------|--
B|--------------|-----------------|------------|---------------------|-----------|--
G|-----6--7-----|-----6--7--------|------------|---------------------|-----------|--
D|--9-----------|-----------------|---------9--|------------------9--|--9--9--9--|--
A|-----------9--|--9--------9--7--|--7---------|--7--------7---------|-----------|--
E|--------------|-----------------|-----10-----|-----0--0-----10-----|-----------|--

Stave 17:

E|-----------|------------|----------------|-------------------------|--
B|-----------|------------|----------------|-------------------------|--
G|-----6--7--|--6h7p6-----|-----6--7--7/9--|--7--9--9b10--9b10--7\0--|--
D|--9--------|---------9--|--9-------------|-------------------------|--
A|-----------|------------|----------------|-------------------------|--
E|-----------|------------|----------------|-------------------------|--

Stave 18:

E|-----------------|-----------------|-----------------|-------------------------|--
B|-----------------|-----------------|-----------------|-------------------------|--
G|--11h12--11------|--11h12--11------|--11h12--11------|--11/12--15--16--16--16--|--
D|-------------14--|-------------14--|-------------14--|-------------------------|--
A|-----------------|-----------------|-----------------|-------------------------|--
E|-----------------|-----------------|-----------------|-------------------------|--

Stave 19:

E|----------------|-----------------|---------------------------------------|--
B|----------------|-----------------|---------------------------------------|--
G|--16/18--18/19--|--18h19--18------|--18--19--19/21--21--19--21b21b21--19--|--
D|----------------|-------------20--|---------------------------------------|--
A|----------------|-----------------|---------------------------------------|--
E|----------------|-----------------|---------------------------------------|--

Stave 20:

E|-----------------|-------------|-------------|--------------|--
B|-----------------|-------------|-------------|--------------|--
G|--18h19--18--16--|--16h18--14--|--14h16--12--|--12h14--11v--|--
D|-----------------|-------------|-------------|--------------|--
A|-----------------|-------------|-------------|--------------|--
E|-----------------|-------------|-------------|--------------|--

Stave 21:

E|-----------------------------|--------------|--------------|--------------------|--
B|----------14--15--15--15/17--|--17--15--17--|--17--15--17--|--17--15--17/19\17--|--
G|--16--16---------------------|--------------|--------------|--------------------|--
D|-----------------------------|--------------|--------------|--------------------|--
A|-----------------------------|--------------|--------------|--------------------|--
E|-----------------------------|--------------|--------------|--------------------|--

Stave 22:

E|-----------------------------|-----------------------
B|--17b18--17--15------15------|-----------------------
G|-----------------16------16--|-----------------------
D|-----------------------------|-----------------------
A|-----------------------------|-----------------------
E|-----------------------------|-----------------------

Stave 23:

E|-----------------------------|--------------|--------------|--------------------|--
B|----------14--15--15--15/17--|--17--15--17--|--17--15--17--|--17--15--17/18\17--|--
G|--16--16---------------------|--------------|--------------|--------------------|--
D|-----------------------------|--------------|--------------|--------------------|--
A|-----------------------------|--------------|--------------|--------------------|--
E|-----------------------------|--------------|--------------|--------------------|--

Stave 24:

E|---------------------|------------------------------|-------------------------------------|--
B|--17--15------15/12--|--19--19--19--19--19--17--19--|------17--19--19--19--19--17--17\12--|--
G|----------16---------|------------------------------|--19---------------------------------|--
D|---------------------|------------------------------|-------------------------------------|--
A|---------------------|------------------------------|-------------------------------------|--
E|---------------------|------------------------------|-------------------------------------|--

Stave 25:

E|---------------------------------|------------------|----------|------|-------------|--
B|--19--19--19--19--19--17------19b|--19--17------17--|----------|------|-------------|--
G|--------------------------19-----|----------19------|--19--18--|--16--|-------------|--
D|---------------------------------|------------------|----------|------|--19--17\12--|--
A|---------------------------------|------------------|----------|------|-------------|--
E|---------------------------------|------------------|----------|------|-------------|--

Stave 26:

E|----------------------------------|-----------------|----------------|------------|----------------------
B|--19--19--19--19--17------17--19--|--17------17\12--|--17--19--19b20r|--17h19r17--|------17------17------
G|----------------------19----------|------19---------|----------------|------------|--19------19------19--
D|----------------------------------|-----------------|----------------|------------|----------------------
A|----------------------------------|-----------------|----------------|------------|----------------------
E|----------------------------------|-----------------|----------------|------------|----------------------

Stave 27:

E|----------------------|--------------|----------|------|-------------|--
B|--19--17------17--19--|--17------17--|----------|------|-------------|--
G|----------19----------|------19------|--19--18--|--16--|-------------|--
D|----------------------|--------------|----------|------|--19--17\12--|--
A|----------------------|--------------|----------|------|-------------|--
E|----------------------|--------------|----------|------|-------------|--

Stave 28:

E|-----------------------------|----------------------|--------------|--
B|--11--11--11--11------9--11--|--11--11--11--11--11--|--11--9--9\5--|--
G|------------------12---------|----------------------|--------------|--
D|-----------------------------|----------------------|--------------|--
A|-----------------------------|----------------------|--------------|--
E|-----------------------------|----------------------|--------------|--

Stave 29:

E|-----------------------------|----------------------|--------------|--
B|-----------------------------|----------------------|--------------|--
G|--11--11--11--11------9--11--|--11--11--11--11--11--|--11--9--9\5--|--
D|------------------12---------|----------------------|--------------|--
A|-----------------------------|----------------------|--------------|--
E|-----------------------------|----------------------|--------------|--

Stave 30:

E|-----------------------------|--------------|---------------|---------------|--
B|-----------------------------|--------------|---------------|---------------|--
G|--11--11--11--11------9--11--|--9------9\5--|--9--11--11b12r|--9h11p11------|--
D|------------------12---------|-----12-------|---------------|-----------12--|--
A|-----------------------------|--------------|---------------|---------------|--
E|-----------------------------|--------------|---------------|---------------|--

Stave 31:

E|-----------------------|--------------------|--------------------------|--------------|--
B|-----------------------|--------------------|--------------------------|--------------|--
G|--9------9------9------|--11--9------9--11--|--11--11--11--11--11--11--|--11--9--9\5--|--
D|-----12-----12-----12--|---------12---------|--------------------------|--------------|--
A|-----------------------|--------------------|--------------------------|--------------|--
E|-----------------------|--------------------|--------------------------|--------------|--

Stave 32:

E|----------------------|--
B|----------------------|--
G|--11--11--11--9--9\5--|--
D|----------------------|--
A|----------------------|--
E|----------------------|--

Stave 33:

E|--------------------------|----------------|----------------|--------------------------------
B|--------------------------|----------------|------------12--|--------------------------------
G|--11h12\9------9----------|----------------|--11h12h14------|--------------------------------
D|-----------12-----11--12--|--12--11h12h14--|----------------|--------------------------------
A|--------------------------|----------------|----------------|--------------------------------
E|--------------------------|----------------|----------------|--------------------------------

Stave 34:

E|-----------------|-----------------------------|--
B|--14--14h15--15--|--14h15p15-------------------|--
G|-----------------|------------16--14\12--12\5--|--
D|-----------------|-----------------------------|--
A|-----------------|-----------------------------|--
E|-----------------|-----------------------------|--

Stave 35:

E|----------------------------------|------------|--
B|----------------------------------|------------|--
G|--12--12--12--11\9--9h12p12--9\7--|--6h7p6--4--|--
D|----------------------------------|------------|--
A|----------------------------------|------------|--
E|----------------------------------|------------|--

Stave 36:

E|---------------------------------------------------------|--
B|---------------------------------------------------------|--
G|--3/15--15--17b17b17b17b17--15h16p15------16-------------|--
D|--------------------------------------17------17--16\0v--|--
A|---------------------------------------------------------|--
E|---------------------------------------------------------|--

Stave 37:

E|-----------------------------------------|--------------------------|--
B|-----------------------------------------|--------------------------|--
G|-----------------------------------------|--------------------------|--
D|--1/4--1/5--1/7--1/9--1/11--1/12v--12\9--|--12r11\9--11r9\7--9r7\5--|--
A|-----------------------------------------|--------------------------|--
E|-----------------------------------------|--------------------------|--

Stave 38:

E|----------------|----------------|----------------|---------------------------|--------
B|----------------|----------------|----------------|---------------------------|--------
G|----------------|----------------|----------------|---------5h6h7--5--7--7/9--|--------
D|--3r2r0--5r3r0--|--3r2r0--5r3r0--|--3r2r0--5r3r0--|--5h6h7--------------------|--------
A|----------------|----------------|----------------|---------------------------|--------
E|----------------|----------------|----------------|---------------------------|--------

Stave 39:

E|--------------------|-------------------|--
B|--------------------|-------------------|--
G|--9b10--9b10--9b10--|--7-----7-----7\0--|--
D|--------------------|-----9-----9-------|--
A|--------------------|-------------------|--
E|--------------------|-------------------|--

http://www.guitartabcreator.com
Guitar Tab Creator is intended to store guitar tab created through the tool. It currently does not support in-line text editing. Any text you place in here will be lost. If you need to comment on your tab, please use the "Tab Notes" section located below.