Sound will begin in 5 seconds

Dire Straits Brothers in Arms

01234567891011121314151617181920212223
E
B
G
D
A
E
B
0 1 2 3 4 5 6 7 8 9 10 11 12 13 14 15 16 17 18 19 20 21 22 23
Song Science #1: How Pros Use 6 Chords to Write Hit Songs
(/) Slide Up  (\) Slide Down  (h) Hammer On  (p) Pull Off  (b) Bend (r) Release (v) Vibrato

Stave 1:

E|--------------------------|-----------------------------------|---------------------------------
B|--------------------------|-----------------------------4-----|---------4--3-----------3--------
G|--------------------------|--3/4/6\4--3--------------4-----6--|--6b8r6--------------------------
D|----------6--8p6--6h8--6--|-----------------------------------|---------------6--4--6-----6--6--
A|--4/6--6------------------|--------------6--4--6--6-----------|---------------------------------
E|--------------------------|-----------------------------------|---------------------------------

Stave 2:

E|-----------------------|--------------|------------|-------------|--------------|--
B|-----------------------|--------------|------------|-------------|--------------|--
G|--4v--3v---------------|--6p8r6r4--6--|--6h8--8p6--|--8r6--------|-----9--8--6--|--
D|----------6v-----6--6--|--------------|------------|-------8--8--|--6-----------|--
A|--------------6--------|--------------|------------|-------------|--------------|--
E|-----------------------|--------------|------------|-------------|--------------|--

Stave 3:

E|-----------------------------|----------------------------|---------------|--
B|-----------------------------|----------------------------|-----4-----4v--|--
G|--4p3--4/6--4--3-------------|--6v--4p3--6--4p3-----------|--4-----6------|--
D|------------------6p4--6--6--|-------------------6--4--6--|---------------|--
A|-----------------------------|----------------------------|---------------|--
E|-----------------------------|----------------------------|---------------|--

Stave 4:

E|-------------------------------------|---------------|----------------|----------|--
B|-------------------------------------|---------------|--7p6-----6-----|----------|--
G|-----------------13--11--------------|--8v--9v--11v--|-------8--------|--4v--6v--|--
D|-----------------13--11--11--11--13--|---------------|-------------8--|----------|--
A|-------------------------11--11--13--|---------------|----------------|----------|--
E|-------------------------------------|---------------|----------------|----------|--

Stave 5:

E|---------------|------------------|--------------|--
B|--9p7--6h7-----|------------------|--------------|--
G|------------8--|--4v--6v--4v--3v--|-----9--8--6--|--
D|---------------|------------------|--6-----------|--
A|---------------|------------------|--------------|--
E|---------------|------------------|--------------|--

Stave 6:

E|---------------------------------|------------------------|-----------|------|-----|--
B|--3--7b9--7--4-------------------|------------------------|-----4-----|------|--11\|--
G|----------------4\3--------------|--3h4/6--4--3-----3-----|--4-----6--|--8v--|-----|--
D|---------------------6--4--6--6--|---------------4-----6--|-----------|------|--11-|--
A|---------------------------------|------------------------|-----------|------|--9--|--
E|---------------------------------|------------------------|-----------|------|-----|--

Stave 7:

E|---------------------|------------|------------------|--------------------------|----------
B|---------------4--6--|-------4h7--|------------------|--5p4--------4------------|----------
G|----------3/4--------|--4h6-------|--3h4--3-----4/6--|-------6--4-----6/8v--9v--|--x---------
D|-------6-------------|------------|----------6-------|--------------------------|--x--\------
A|--4/6----------------|------------|------------------|--------------------------|--x---------
E|---------------------|------------|------------------|--------------------------|--x---------

Stave 8:

E|--------------------|----------------------------|----------------|---------------|--
B|--------------------|----------------------------|--9h11p9--------|---------------|--
G|---------8h11b13r9--|--11b13--11--8-----8h11b13--|----------11p9--|--8h11p8h11p8--|--
D|------9-------------|----------------9-----------|----------------|---------------|--
A|--11----------------|----------------------------|----------------|---------------|--
E|--------------------|----------------------------|----------------|---------------|--

Stave 9:

E|------------------------------------|--------------|-------------|------------------|--
B|------------------------------------|--------------|--------4----|------------------|--
G|--11b13--11--8----------------------|--4h6--6b8r4--|-----4-----6h|--8v--6v--4v--3v--|--
D|----------------9p8-----------------|--------------|--6----------|------------------|--
A|---------------------11--9--11--11--|--------------|-------------|------------------|--
E|------------------------------------|--------------|-------------|------------------|--

http://www.guitartabcreator.com
Guitar Tab Creator is intended to store guitar tab created through the tool. It currently does not support in-line text editing. Any text you place in here will be lost. If you need to comment on your tab, please use the "Tab Notes" section located below.