Sound will begin in 5 seconds

R U Mine - Arctic Monkeys

01234567891011121314151617181920212223
E
B
G
D
A
E
B
0 1 2 3 4 5 6 7 8 9 10 11 12 13 14 15 16 17 18 19 20 21 22 23
Song Science #1: How Pros Use 6 Chords to Write Hit Songs
(/) Slide Up  (\) Slide Down  (h) Hammer On  (p) Pull Off  (b) Bend (r) Release (v) Vibrato

Stave 1:

E|------
B|------
G|------
D|------
A|------
E|--2v--

Stave 2:

E|----------------------------------------------------
B|----------------------------------------------------
G|----------------------------------------------------
D|----------------------------------------------------
A|----------------------------5----5--5--4--2----2/14b
E|--2--2----2--2----7h9--7h9--------------------------

Stave 3:

E|-------------------------------------------------------
B|-------------------------------------------------------
G|----------------------------7----7--7--6--4----4--4-----
D|-------------------------------------------------------
A|----------------------------5----5--5--4--2----2--2--0--
E|--2--2----2--2----7h9--7h9-----------------------------

Stave 4:

E|----------------------------------------------------------------
B|----------------------------------------------------------------
G|----------------------------------------------------------------
D|-------------------------7--------------------------------------
A|--------------------7h9-----9--7--5----5--5--4----2----2--2--0--
E|--2----2--2----7h9----------------------------------------------

Stave 5:

E|--------------------------------------------------------------------
B|--------------------------------------------------------------------
G|--------------------------------------------------------------------
D|-------------------------7--9p7-------------------------------------
A|--------------------7h9----------9p7--5----5--5--4----2----2--2--0--
E|--2----2--2----7h9--------------------------------------------------

Stave 6:

E|----------------------------------------------------------------
B|----------------------------------------------------------------
G|----------------------------------------------------------------
D|-------------------------7--------------------------------------
A|--------------------7h9-----9--7--5----5--5--4----2----2--2--0--
E|--2----2--2----7h9----------------------------------------------

Stave 7:

E|-----------------------------------------------------
B|-----------------------------------------------------
G|-----------------------7----7--7--6----4----4--4-----
D|-----------------------------------------------------
A|-----------------------5----5--5--4----2----2--2--0--
E|--2----2--2------------------------------------------

Stave 8:

E|-----------------------------------------------
B|-----------------------------------------------
G|-------------------7----7--7--6--4----4--4-----
D|-----------------------------------------------
A|-------------------5----5--5--4--2----2--2--0--
E|--2----2--2----2v------------------------------

Stave 9:

E|------------------------------------------------------------------------------
B|------------------------------------------------------------------------------
G|------------------------------------------------------------------------------
D|------------------------------------------------------------------------------
A|-----------------------7h9-------7h9-------5----5--5--4----2----0-------------
E|--2--2----2--2----7h9-------7h9-------7h9--------------------------2----2--2--

Stave 10:

E|----------------------------------
B|----------------------------------
G|----------------------------------
D|----------------------------------
A|----5----5--5--4----2----2--2--0--
E|----------------------------------

Stave 11:

E|--------------
B|--------------
G|--------------
D|--------------
A|----2/4--2h4--
E|--------------

Stave 12:

E|-----------------------------------------------------------------------------------------------
B|-----------------------------------------------------------------------------------------------
G|-----------------------------------------------------------------------------------------------
D|----2------------------------------------------------------------------------------------------
A|---------4-------------------------------------------------------------------------------------
E|--------------7----7--7----7--7----7--7----9--10----10--10----10--10----10--10--9\2----2--2----

Stave 13:

E|----
B|----
G|----
D|----
A|----
E|----

http://www.guitartabcreator.com
Guitar Tab Creator is intended to store guitar tab created through the tool. It currently does not support in-line text editing. Any text you place in here will be lost. If you need to comment on your tab, please use the "Tab Notes" section located below.