Sound will begin in 5 seconds

whipping post

01234567891011121314151617181920212223
E
B
G
D
A
E
B
0 1 2 3 4 5 6 7 8 9 10 11 12 13 14 15 16 17 18 19 20 21 22 23
Song Science #1: How Pros Use 6 Chords to Write Hit Songs
(/) Slide Up  (\) Slide Down  (h) Hammer On  (p) Pull Off  (b) Bend (r) Release (v) Vibrato

Stave 1:

E|-----0--------------------0--------------------0--------------------0--------------------
B|--------0--------------------0--------------------0--------------------0-----------------
G|-----------------------------------------------------------------------------------------
D|--1--------------------1--------------------1--------------------1--------------------1--
A|--1--------3-----------1--------3-----------1--------3-----------1--------3-----------1--
E|--0--------1--0--3--2--0--------1--0--3--2--0--------1--0--3--2--0--------1--0--3--2--0--

Stave 2:

E|-----------------------------------------------------------------------------------------------------------------------
B|-----------------------------------------------------------------------------------------------------------------------
G|------------------------8h9--8-----------------------------------------------------------------------------------------
D|-------------7--9h10------------10--9--7--9h10--9--7-------------------------------------------------------------------
A|--7--9h10-----------------------------------------------10--9--7--------------7h9h10-----------------------------------
E|--------------------------------------------------------------------7h8h10---------------------------------------------

Stave 3:

E|--------------------------------------7----------------------------
B|-----------------------------------8-----8-------------------------
G|--------------------------------9-----------9----------------------
D|-----------------------------9-----------------9-------------------
A|--10p9p7---------------7h10-----------------------10p7---------7v--
E|------------10p9p7--7-----------------------------------7\5/7------

Stave 4:

E|-----------
B|-----------
G|-----1-----
D|-----1-----
A|-----------
E|-----------

http://www.guitartabcreator.com
Guitar Tab Creator is intended to store guitar tab created through the tool. It currently does not support in-line text editing. Any text you place in here will be lost. If you need to comment on your tab, please use the "Tab Notes" section located below.