untitled15

01234567891011121314151617181920212223
E
B
G
D
A
E
B
0 1 2 3 4 5 6 7 8 9 10 11 12 13 14 15 16 17 18 19 20 21 22 23
(/) Slide Up  (\) Slide Down  (h) Hammer On  (p) Pull Off  (b) Bend (r) Release (v) Vibrato

Stave 1:

E|-----------------------------------------------
B|-----------------------------------------------
G|-----------------------------------------------
D|-7-----7-9-10---6---3---3-3-3---2-------10---6-
A|-7-----7-9-10---6---3---3-3-3---2-------10---6-
E|-5-----5-7-8----4---1---1-1-1---0---0---8----4-

Stave 2:

E|-----------------------------------------------
B|-----------------------------------------------
G|-----------------------------------------------
D|-7-----7-9-10---7------------------------------
A|-7-----7-9-10---7---5/8v-----8-7-5-------------
E|-5-----5-7-8----5--------------------8---7---4-

							http://www.guitartabcreator.com
Chords

Instruments
{"strings":[[[".","_","_",".",".",".","_",".","_",".","_",".",".",".","_",".","_",".","_",".","_","."],[".","_","_",".",".",".","_",".","_",".","_",".",".",".","_",".","_",".","_",".","_","."],[".","_","_",".",".",".","_",".","_",".","_",".",".",".","_",".","_",".","_",".","_","."],[7,"_","_",7,9,10,"_",6,"_",3,"_",3,3,3,"_",2,"_",".","_",10,"_",6],[7,"_","_",7,9,10,"_",6,"_",3,"_",3,3,3,"_",2,"_",".","_",10,"_",6],[5,"_","_",5,7,8,"_",4,"_",1,"_",1,1,1,"_",0,"_",0,"_",8,"_",4]],[[".","_","_",".",".",".","_",".","_",".",".",".",".","_","_",".",".",".","_",".","_",".","_","."],[".","_","_",".",".",".","_",".","_",".",".",".",".","_","_",".",".",".","_",".","_",".","_","."],[".","_","_",".",".",".","_",".","_",".",".",".",".","_","_",".",".",".","_",".","_",".","_","."],[7,"_","_",7,9,10,"_",7,"_",".",".",".",".","_","_",".",".",".","_",".","_",".","_","."],[7,"_","_",7,9,10,"_",7,"_",5,"/",8,"v","_","_",8,7,5,"_",".","_",".","_","."],[5,"_","_",5,7,8,"_",5,"_",".",".",".",".","_","_",".",".",".","_",8,"_",7,"_",4]]],"numberofstrings":6,"notes":["E","B","G","D","A","E","B"],"capo":0,"stringnotes":["E4","B3","G3","D3","A2","E2"],"comments":["Stave 1:","Stave 2:"],"timing":[["W","W","W","W","W","W","W","W","W","W","W","W","W","W","W","W","W","W","W","W","W","W"],["W","W","W","W","W","W","W","W","W","W",null,"W",null,"W","W","W","W","W","W","W","W","W","W","W"]],"timingvisible":false,"tabcounter":24,"stave":1,"totalstaves":2,"instrument":"6guitar","selectedtuning":"6_standard","version":"13"}

Member for

4 months 2 weeks
Picture
About Me
[insert obligatory sweaty pretentious music nerd bio here]
Submitted by Marduk28 on Thu, 2021-10-14 15:13