untitled14

01234567891011121314151617181920212223
E
B
G
D
A
E
B
0 1 2 3 4 5 6 7 8 9 10 11 12 13 14 15 16 17 18 19 20 21 22 23
(/) Slide Up  (\) Slide Down  (h) Hammer On  (p) Pull Off  (b) Bend (r) Release (v) Vibrato

Stave 1:

E|----------------------------------------------------------------------
B|----------------------------------------------------------------------
G|----------------------------------------------------------------------
D|-----7/9-----7/10-----9/10-----9/12-----7/9-----9/10-----9/12-----7/9-
A|-0---------0--------0--------0------0---------0--------0--------0-----
E|----------------------------------------------------------------------

Stave 2:

E|------------------------------------------------------------------------
B|------------------------------------------------------------------------
G|------------------------------------------------------------------------
D|-----7/9-----9/10-----10/12-----12/14-----7/9-----7/10-----9/12-----7/9-
A|-0---------0--------0---------0-------0---------0--------0--------0-----
E|------------------------------------------------------------------------

							http://www.guitartabcreator.com
Chords

Instruments
{"strings":[[[".","_",".",".",".","_",".",".",".",".","_",".",".",".",".","_",".",".",".",".",".","_",".",".",".","_",".",".",".",".","_",".",".",".",".","_",".",".",".","."],[".","_",".",".",".","_",".",".",".",".","_",".",".",".",".","_",".",".",".",".",".","_",".",".",".","_",".",".",".",".","_",".",".",".",".","_",".",".",".","."],[".","_",".",".",".","_",".",".",".",".","_",".",".",".",".","_",".",".",".",".",".","_",".",".",".","_",".",".",".",".","_",".",".",".",".","_",".",".",".","."],[".","_",7,"/",9,"_",".",7,"/",10,"_",".",9,"/",10,"_",".",9,"/",12,".","_",7,"/",9,"_",".",9,"/",10,"_",".",9,"/",12,"_",".",7,"/",9],[0,"_",".",".",".","_",0,".",".",".","_",0,".",".",".","_",0,".",".",".",0,"_",".",".",".","_",0,".",".",".","_",0,".",".",".","_",0,".",".","."],[".","_",".",".",".","_",".",".",".",".","_",".",".",".",".","_",".",".",".",".",".","_",".",".",".","_",".",".",".",".","_",".",".",".",".","_",".",".",".","."]],[[".","_",".",".",".","_",".",".",".",".","_",".",".",".",".","_",".",".",".",".",".","_",".",".",".","_",".",".",".",".","_",".",".",".",".","_",".",".",".","."],[".","_",".",".",".","_",".",".",".",".","_",".",".",".",".","_",".",".",".",".",".","_",".",".",".","_",".",".",".",".","_",".",".",".",".","_",".",".",".","."],[".","_",".",".",".","_",".",".",".",".","_",".",".",".",".","_",".",".",".",".",".","_",".",".",".","_",".",".",".",".","_",".",".",".",".","_",".",".",".","."],[".","_",7,"/",9,"_",".",9,"/",10,"_",".",10,"/",12,"_",".",12,"/",14,".","_",7,"/",9,"_",".",7,"/",10,"_",".",9,"/",12,"_",".",7,"/",9],[0,"_",".",".",".","_",0,".",".",".","_",0,".",".",".","_",0,".",".",".",0,"_",".",".",".","_",0,".",".",".","_",0,".",".",".","_",0,".",".","."],[".","_",".",".",".","_",".",".",".",".","_",".",".",".",".","_",".",".",".",".",".","_",".",".",".","_",".",".",".",".","_",".",".",".",".","_",".",".",".","."]]],"numberofstrings":6,"notes":["E","B","G","D","A","E","B"],"capo":0,"stringnotes":["E4","B3","G3","D3","A2","E2"],"comments":["Stave 1:","Stave 2:"],"timing":[["W","W","W",null,"W","W","W","W",null,"W","W","W","W",null,"W","W","W","W",null,"W","W","W","W",null,"W","W","W","W",null,"W","W","W","W",null,"W","W","W","W",null,"W"],["W","W","W",null,"W","W","W","W",null,"W","W","W","W",null,"W","W","W","W",null,"W","W","W","W",null,"W","W","W","W",null,"W","W","W","W",null,"W","W","W","W",null,"W"]],"timingvisible":false,"tabcounter":40,"stave":1,"totalstaves":2,"instrument":"6guitar","selectedtuning":"6_standard","version":"13"}

Member for

4 months 2 weeks
Picture
About Me
[insert obligatory sweaty pretentious music nerd bio here]
Submitted by Marduk28 on Thu, 2021-10-14 15:03