Riff inspired by Unholy Confessions, TOOL, My Curse

01234567891011121314151617181920212223
E
B
G
D
A
E
B
0 1 2 3 4 5 6 7 8 9 10 11 12 13 14 15 16 17 18 19 20 21 22 23
(/) Slide Up  (\) Slide Down  (h) Hammer On  (p) Pull Off  (b) Bend (r) Release (v) Vibrato

Stave 1:

E|-----------------------------------------------------------------
B|-----------------------------------------------------------------
G|-----------------------------------------------------------------
D|-----------------------------------------------------------------
A|-----------------------------1---------------------------1-1-1-1-
D|-0-0-7p0-5p0-0-8p0-7p0-0-5p0-1---0-0-7p0-5p0-0-8p0-7p0-0-1-1-1-1-

Stave 2:

E|---------------------------------------------------------------
B|---------------------------------------------------------------
G|---------------------------------------------------------------
D|---------------------------------------------------------------
A|-----3---5-------3---5---5-6-------------------------0---------
D|-0-0-3---5---0-0-3---5---5-6---0-0-7p0-0-5p0-0-3p0-0-0---0-0-0-

Stave 3:

E|---------------------------------------------------------------
B|---------------------------------------------------------------
G|---------------------------------------------------------------
D|---------------------------7-----------------------------------
A|-----3---5-------3-5-5-5---5---------------------------1-1-1-1-
D|-0-0-3---5---0-0-3-5-5-5-------0-0-7p0-0-5p0-0-3p0-0-0-1-1-1-1-

Stave 4:

E|-
B|-
G|-
D|-
A|-
D|-

Stave 5:

E|-----------------------------------------------------------------
B|-----------------------------------------------------------------
G|-----------------------------------------------------------------
D|-----------------------------5-3---------------------------------
A|-----3---5-------3-5-5-5-----5-3-------------------------1---1---
D|-0-0-3---5---0-0-3-5-5-5---0-----0-0-0-0-0-0-0-0-0-0-0-0-1---1---

							http://www.guitartabcreator.com
Chords

genre
Instruments
{"strings":[[[".",".",".",".",".",".",".",".",".",".",".",".",".",".",".",".",".",".",".",".","_",".",".",".",".",".",".",".",".",".",".",".",".",".",".",".",".",".",".",".","."],[".",".",".",".",".",".",".",".",".",".",".",".",".",".",".",".",".",".",".",".","_",".",".",".",".",".",".",".",".",".",".",".",".",".",".",".",".",".",".",".","."],[".",".",".",".",".",".",".",".",".",".",".",".",".",".",".",".",".",".",".",".","_",".",".",".",".",".",".",".",".",".",".",".",".",".",".",".",".",".",".",".","."],[".",".",".",".",".",".",".",".",".",".",".",".",".",".",".",".",".",".",".",".","_",".",".",".",".",".",".",".",".",".",".",".",".",".",".",".",".",".",".",".","."],[".",".",".",".",".",".",".",".",".",".",".",".",".",".",".",".",".",".",".",1,"_",".",".",".",".",".",".",".",".",".",".",".",".",".",".",".",".",1,1,1,1],[0,0,7,"p",0,5,"p",0,0,8,"p",0,7,"p",0,0,5,"p",0,1,"_",0,0,7,"p",0,5,"p",0,0,8,"p",0,7,"p",0,0,1,1,1,1]],[[".",".",".","_",".","_",".",".",".","_",".","_",".",".","_",".",".",".",".",".",".",".",".",".",".",".",".",".",".",".","_",".",".","."],[".",".",".","_",".","_",".",".",".","_",".","_",".",".","_",".",".",".",".",".",".",".",".",".",".",".",".",".",".",".","_",".",".","."],[".",".",".","_",".","_",".",".",".","_",".","_",".",".","_",".",".",".",".",".",".",".",".",".",".",".",".",".",".",".","_",".",".","."],[".",".",".","_",".","_",".",".",".","_",".","_",".",".","_",".",".",".",".",".",".",".",".",".",".",".",".",".",".",".","_",".",".","."],[".",".",3,"_",5,"_",".",".",3,"_",5,"_",5,6,"_",".",".",".",".",".",".",".",".",".",".",".",".",".",".",0,"_",".",".","."],[0,0,3,"_",5,"_",0,0,3,"_",5,"_",5,6,"_",0,0,7,"p",0,0,5,"p",0,0,3,"p",0,0,0,"_",0,0,0]],[[".",".",".","_",".","_",".",".",".",".",".",".","_",".","_",".",".",".",".",".",".",".",".",".",".",".",".",".",".",".",".",".",".","."],[".",".",".","_",".","_",".",".",".",".",".",".","_",".","_",".",".",".",".",".",".",".",".",".",".",".",".",".",".",".",".",".",".","."],[".",".",".","_",".","_",".",".",".",".",".",".","_",".","_",".",".",".",".",".",".",".",".",".",".",".",".",".",".",".",".",".",".","."],[".",".",".","_",".","_",".",".",".",".",".",".","_",7,"_",".",".",".",".",".",".",".",".",".",".",".",".",".",".",".",".",".",".","."],[".",".",3,"_",5,"_",".",".",3,5,5,5,"_",5,"_",".",".",".",".",".",".",".",".",".",".",".",".",".",".",".",1,1,1,1],[0,0,3,"_",5,"_",0,0,3,5,5,5,"_",".","_",0,0,7,"p",0,0,5,"p",0,0,3,"p",0,0,0,1,1,1,1]],[[],[],[],[],[],[]],[[".",".",".","_",".","_",".",".",".",".",".",".","_",".",".",".",".",".",".",".",".",".",".",".",".",".",".",".",".","_",".","_"],[".",".",".","_",".","_",".",".",".",".",".",".","_",".",".",".",".",".",".",".",".",".",".",".",".",".",".",".",".","_",".","_"],[".",".",".","_",".","_",".",".",".",".",".",".","_",".",".",".",".",".",".",".",".",".",".",".",".",".",".",".",".","_",".","_"],[".",".",".","_",".","_",".",".",".",".",".",".","_",".",5,3,".",".",".",".",".",".",".",".",".",".",".",".",".","_",".","_"],[".",".",3,"_",5,"_",".",".",3,5,5,5,"_",".",5,3,".",".",".",".",".",".",".",".",".",".",".",".",1,"_",1,"_"],[0,0,3,"_",5,"_",0,0,3,5,5,5,"_",0,".",".",0,0,0,0,0,0,0,0,0,0,0,0,1,"_",1,"_"]]],"numberofstrings":6,"notes":["E","B","G","D","A","D"],"capo":0,"stringnotes":["E3","B2","G2","D2","A2","D1"],"comments":["Stave 1:","Stave 2:","Stave 3:","Stave 4:","Stave 5:"],"timing":[["Q","Q","Q",null,"Q","Q",null,"Q","Q","Q",null,"Q","Q",null,"Q","Q","Q",null,"Q","W","W","W","W","W",null,"W","W",null,"W","W","W",null,"W","W",null,"W","W","W","W","W","W"],["W","W","W","W","W","W","W","W","W","W","W","W","W","W","W","W","W","W",null,"W","W","W",null,"W","W","W",null,"W","W","W","W","W","W","W"],["W","W","W","W","W","W","W","W","W","W","W","W","W","W","W","W","W","W",null,"W","W","W",null,"W","W","W",null,"W","W","W","W","W","W","W"],[],["W","W","W","W","W","W","W","W","W","W","W","W","W","W","W","W","W","W","W","W","W","W","W","W","W","W","W","W","W","W","W","W"]],"timingvisible":false,"tabcounter":32,"stave":4,"totalstaves":5,"instrument":"6guitar","selectedtuning":"Drop D","version":"13"}

Member for

3 months 3 weeks
Picture
About Me
[insert obligatory sweaty pretentious music nerd bio here]
Submitted by Marduk28 on Fri, 2021-06-25 12:55