Riff 2

01234567891011121314151617181920212223
E
B
G
D
A
E
B
0 1 2 3 4 5 6 7 8 9 10 11 12 13 14 15 16 17 18 19 20 21 22 23
(/) Slide Up  (\) Slide Down  (h) Hammer On  (p) Pull Off  (b) Bend (r) Release (v) Vibrato

Stave 1:

E|---------------------------------------------------------
B|---------------------------------------------------------
G|---------------------------------------------------------
D|-----7---6---5---6---7-----------------------------------
A|-----7---6---5---6---7-----------------------------------
D|-0-0---------------------3p0-0-0-0-0-0-0-3p0-0-0-0-0-0-0-

Stave 2:

E|-------------------------------------------------------
B|-------------------------------------------------------
G|-------------------------------------------------------
D|-----7---6---5---6---3-----5---5-----5---5-------------
A|-----7---6---5---6---3-----3---3-----3---3---------0h1-
D|-0-0-----------------------------0---------0---0-0-0---

							http://www.guitartabcreator.com
Chords

Instruments
{"strings":[[[".",".",".","_",".","_",".","_",".","_",".","_",".",".",".",".",".",".",".",".",".",".",".",".",".",".",".",".",".","."],[".",".",".","_",".","_",".","_",".","_",".","_",".",".",".",".",".",".",".",".",".",".",".",".",".",".",".",".",".","."],[".",".",".","_",".","_",".","_",".","_",".","_",".",".",".",".",".",".",".",".",".",".",".",".",".",".",".",".",".","."],[".",".",7,"_",6,"_",5,"_",6,"_",7,"_",".",".",".",".",".",".",".",".",".",".",".",".",".",".",".",".",".","."],[".",".",7,"_",6,"_",5,"_",6,"_",7,"_",".",".",".",".",".",".",".",".",".",".",".",".",".",".",".",".",".","."],[0,0,".","_",".","_",".","_",".","_",".","_",3,"p",0,0,0,0,0,0,0,3,"p",0,0,0,0,0,0,0]],[[".",".",".","_",".","_",".","_",".","_",".","_","_",".","_",".",".","_",".","_",".",".","_",".",".",".",".","."],[".",".",".","_",".","_",".","_",".","_",".","_","_",".","_",".",".","_",".","_",".",".","_",".",".",".",".","."],[".",".",".","_",".","_",".","_",".","_",".","_","_",".","_",".",".","_",".","_",".",".","_",".",".",".",".","."],[".",".",7,"_",6,"_",5,"_",6,"_",3,"_","_",5,"_",5,".","_",5,"_",5,".","_",".",".",".",".","."],[".",".",7,"_",6,"_",5,"_",6,"_",3,"_","_",3,"_",3,".","_",3,"_",3,".","_",".",".",0,"h",1],[0,0,".","_",".","_",".","_",".","_",".","_","_",".","_",".",0,"_",".","_",".",0,"_",0,0,0,".","."]]],"numberofstrings":6,"notes":["E","B","G","D","A","D","B"],"capo":0,"stringnotes":["E4","B3","G3","D3","A2","D2"],"comments":["Stave 1:","Stave 2:"],"timing":[["W","W","W","W","W","W","W","W","W","W","W","W","W",null,"W","W","W","W","W","W","W","W",null,"W","W","W","W","W","W","W"],["W","W","W","W","W","W","W","W","W","W","W","W","W","W","W","W","W","W","W","W","W","W","W","W","W","W",null,"W"]],"timingvisible":false,"tabcounter":27,"stave":1,"totalstaves":2,"instrument":"6guitar","selectedtuning":"6_standard","version":"13"}

Member for

4 months 2 weeks
Picture
About Me
[insert obligatory sweaty pretentious music nerd bio here]
Submitted by Marduk28 on Wed, 2021-07-07 16:08