My Curse Main Riff

01234567891011121314151617181920212223
E
B
G
D
A
E
B
0 1 2 3 4 5 6 7 8 9 10 11 12 13 14 15 16 17 18 19 20 21 22 23
(/) Slide Up  (\) Slide Down  (h) Hammer On  (p) Pull Off  (b) Bend (r) Release (v) Vibrato

Stave 1:

D|-----------------------------------------------------------------------
A|-----------------------------------------------------------------------
F|-----------------------------------------------------------------------
C|--5--------3-----------------------------------------------------------
G|--5--------3----------------------------------------5------------------
C|-----0--0-----0--0--6--0--0--5--0--0--3p0--0--0--7-----7--6--5p0--3h5--

Stave 2:

D|---------------------------------------------------------------------
A|---------------------------------------------------------------------
F|---------------------------------------------------------------------
C|--5--------3---------------------------------------------------------
G|--5--------3----------------------------------------3----------------
C|-----0--0-----0--0--6--0--0--5--0--0--3p0--0--0--5-----5--4--3p0--3--

							http://www.guitartabcreator.com
Chords

genre
Instruments
{"strings":[[[".",".",".",".",".",".",".",".",".",".",".",".",".",".",".",".",".",".",".",".",".",".",".",".",".",".","."],[".",".",".",".",".",".",".",".",".",".",".",".",".",".",".",".",".",".",".",".",".",".",".",".",".",".","."],[".",".",".",".",".",".",".",".",".",".",".",".",".",".",".",".",".",".",".",".",".",".",".",".",".",".","."],[5,".",".",3,".",".",".",".",".",".",".",".",".",".",".",".",".",".",".",".",".",".",".",".",".",".","."],[5,".",".",3,".",".",".",".",".",".",".",".",".",".",".",".",".",".",5,".",".",".",".",".",".",".","."],[".",0,0,".",0,0,6,0,0,5,0,0,3,"p",0,0,0,7,".",7,6,5,"p",0,3,"h",5]],[[".",".",".",".",".",".",".",".",".",".",".",".",".",".",".",".",".",".",".",".",".",".",".",".","."],[".",".",".",".",".",".",".",".",".",".",".",".",".",".",".",".",".",".",".",".",".",".",".",".","."],[".",".",".",".",".",".",".",".",".",".",".",".",".",".",".",".",".",".",".",".",".",".",".",".","."],[5,".",".",3,".",".",".",".",".",".",".",".",".",".",".",".",".",".",".",".",".",".",".",".","."],[5,".",".",3,".",".",".",".",".",".",".",".",".",".",".",".",".",".",3,".",".",".",".",".","."],[".",0,0,".",0,0,6,0,0,5,0,0,3,"p",0,0,0,5,".",5,4,3,"p",0,3]]],"numberofstrings":6,"notes":["D","A","F","C","G","C"],"capo":0,"stringnotes":["D3","A2","F2","C2","G1","C1"],"comments":["Stave 1:","Stave 2:"],"timing":[["E","E","E","E","E","E","E","E","E","E","E","E","E",null,"E","E","E","E","E","E","E","E",null,"E","E",null,"E"],["E","E","E","E","E","E","E","E","E","E","E","E","E",null,"E","E","E","E","E","E","E","E",null,"E","E"]],"timingvisible":false,"tabcounter":25,"stave":1,"totalstaves":2,"instrument":"6guitar","selectedtuning":"Drop C","version":"13"}

Member for

3 months 3 weeks
Picture
About Me
[insert obligatory sweaty pretentious music nerd bio here]
Submitted by Marduk28 on Sat, 2021-06-26 00:08