idk

01234567891011121314151617181920212223
E
B
G
D
A
E
B
0 1 2 3 4 5 6 7 8 9 10 11 12 13 14 15 16 17 18 19 20 21 22 23
(/) Slide Up  (\) Slide Down  (h) Hammer On  (p) Pull Off  (b) Bend (r) Release (v) Vibrato

Stave 1:

E|---------------------------------------------------------------------
B|---------------------------------------------------------------------
G|---------------------------------------------------------------------
D|---------------------------------------------------------------------
A|-----5/7---7-5-------------------------5/7---7-5---------------------
E|-0-------------7-6-5---5-3-5-7-5-3-0-------------7-6-5---5p0-3p0-5-3-

Stave 2:

E|---------------------------------------------------------------------
B|---------------------------------------------------------------------
G|---------------------------------------------------------------------
D|---------------------------------------------------5-7b8b7-5-------5-
A|-----5/7---7-5-------------------------5/7---7-5-7-----------7-5-7---
E|-0-------------7-6-5---5-3-5-7-5-3-0---------------------------------

							http://www.guitartabcreator.com
Chords

Instruments
{"strings":[[[".","_",".",".",".","_",".",".",".",".",".","_",".",".",".",".",".",".",".","_",".",".",".","_",".",".",".",".",".","_",".",".",".",".",".",".",".","."],[".","_",".",".",".","_",".",".",".",".",".","_",".",".",".",".",".",".",".","_",".",".",".","_",".",".",".",".",".","_",".",".",".",".",".",".",".","."],[".","_",".",".",".","_",".",".",".",".",".","_",".",".",".",".",".",".",".","_",".",".",".","_",".",".",".",".",".","_",".",".",".",".",".",".",".","."],[".","_",".",".",".","_",".",".",".",".",".","_",".",".",".",".",".",".",".","_",".",".",".","_",".",".",".",".",".","_",".",".",".",".",".",".",".","."],[".","_",5,"/",7,"_",7,5,".",".",".","_",".",".",".",".",".",".",".","_",5,"/",7,"_",7,5,".",".",".","_",".",".",".",".",".",".",".","."],[0,"_",".",".",".","_",".",".",7,6,5,"_",5,3,5,7,5,3,0,"_",".",".",".","_",".",".",7,6,5,"_",5,"p",0,3,"p",0,5,3]],[[".","_",".",".",".","_",".",".",".",".",".","_",".",".",".",".",".",".",".","_",".",".",".","_",".",".",".",".",".",".",".",".",".",".",".",".",".","."],[".","_",".",".",".","_",".",".",".",".",".","_",".",".",".",".",".",".",".","_",".",".",".","_",".",".",".",".",".",".",".",".",".",".",".",".",".","."],[".","_",".",".",".","_",".",".",".",".",".","_",".",".",".",".",".",".",".","_",".",".",".","_",".",".",".",".",".",".",".",".",".",".",".",".",".","."],[".","_",".",".",".","_",".",".",".",".",".","_",".",".",".",".",".",".",".","_",".",".",".","_",".",".",".",5,7,"b",8,"b",7,5,".",".",".",5],[".","_",5,"/",7,"_",7,5,".",".",".","_",".",".",".",".",".",".",".","_",5,"/",7,"_",7,5,7,".",".",".",".",".",".",".",7,5,7,"."],[0,"_",".",".",".","_",".",".",7,6,5,"_",5,3,5,7,5,3,0,"_",".",".",".","_",".",".",".",".",".",".",".",".",".",".",".",".",".","."]]],"numberofstrings":6,"notes":["E","B","G","D","A","E","B"],"capo":0,"stringnotes":["E4","B3","G3","D3","A2","E2"],"comments":["Stave 1:","Stave 2:"],"timing":[["Q","Q","Q",null,"Q","Q","E","E","E","E","Q","Q","E","E","E","E","E","E","Q","Q","Q",null,"Q","Q","E","E","E","E","Q","Q","E",null,"E","E",null,"E","E","E"],["Q","Q","Q",null,"Q","Q","E","E","E","E","Q","Q","E","E","E","E","E","E","Q","Q","Q",null,"Q","Q","E","E","E","E","E",null,"E",null,"E","E","E","E","E","E"]],"timingvisible":false,"tabcounter":38,"stave":1,"totalstaves":2,"instrument":"6guitar","selectedtuning":"6_standard","version":"13"}

Member for

4 months 2 weeks
Picture
About Me
[insert obligatory sweaty pretentious music nerd bio here]
Submitted by Marduk28 on Sun, 2021-08-29 13:17