Sound will begin in 5 seconds

Escala Cromática

01234567891011121314151617181920212223
E
B
G
D
A
E
B
0 1 2 3 4 5 6 7 8 9 10 11 12 13 14 15 16 17 18 19 20 21 22 23
Song Science #1: How Pros Use 6 Chords to Write Hit Songs
(/) Slide Up  (\) Slide Down  (h) Hammer On  (p) Pull Off  (b) Bend (r) Release (v) Vibrato

Stave 1:

G|--1--2--3--4-----5--6--7--8-----9--10--11--12--
D|-----------------------------------------------
A|-----------------------------------------------
E|-----------------------------------------------

Stave 2:

G|--13--12--11--10-----9--8--7--6-----5--4--3--2--
D|------------------------------------------------
A|------------------------------------------------
E|------------------------------------------------

Stave 3:

G|--------------------------1--2--3--4--
D|--------------2--3--4--5--------------
A|--3--4--5--6--------------------------
E|--------------------------------------

Stave 4:

G|--5--4--3--2--------------------------
D|--------------6--5--4--3--------------
A|--------------------------7--6--5--4--
E|--------------------------------------

Stave 5:

G|-----------------------------------------5--6--7--8--
D|-----------------------------6--7--8--9--------------
A|----------------7--8--9--10--------------------------
E|--8--9--10--11---------------------------------------

Stave 6:

G|--9--8--7--6--------------------------------------------
D|--------------10--9--8--7-------------------------------
A|---------------------------11--10--9--8-----------------
E|-----------------------------------------12--11--10--9--

http://www.guitartabcreator.com
Guitar Tab Creator is intended to store guitar tab created through the tool. It currently does not support in-line text editing. Any text you place in here will be lost. If you need to comment on your tab, please use the "Tab Notes" section located below.