Valentines Mayday (bass tab)

Chords
01234567891011121314151617181920212223
E
B
G
D
A
E
B
0 1 2 3 4 5 6 7 8 9 10 11 12 13 14 15 16 17 18 19 20 21 22 23
Valentines Mayday

Tuning: Standard

Verse

G|---------------------------------------------------------------------------
D|33333333-7777-5555-33333333-7777-5555-22222222-7777-5555-33333333-55555555-
A|---------------------------------------------------------------------------
E|---------------------------------------------------------------------------

G|---------------------------------------------------------------------------
D|33333333-7777-5555-33333333-7777-5555-22222222-7777-5555-33333333-55555555-
A|---------------------------------------------------------------------------
E|---------------------------------------------------------------------------

G|----------------------------------------------------------------------
D|----------------------------------------------------------------------
A|33333333-55555555-7777777777777777-33333333-55555555-7777777777777777-
E|----------------------------------------------------------------------

Chorus

G|-----------------------------------------------------------------
D|-----------------------------------------------------------------
A|3333333333333333-00--00--00--00--3333333333333333-00--00--00--00-
E|-----------------------------------------------------------------

G|------------------------------------------------------------------------
D|------------------------------------------------------------------------
A|3333333-7777-5555-33333333-7777-5555-0000000000000000-33333333-55555555-
E|------------------------------------------------------------------------

G|--------------------------------
D|--------------------------------
A|33--33--33--33--33--33--33--33--
E|--------------------------------

Verse

G|---------------------------------------------------------------------------
D|33333333-7777-5555-33333333-7777-5555-22222222-7777-5555-33333333-55555555-
A|---------------------------------------------------------------------------
E|---------------------------------------------------------------------------

G|---------------------------------------------------------------------------
D|33333333-7777-5555-33333333-7777-5555-22222222-7777-5555-33333333-55555555-
A|---------------------------------------------------------------------------
E|---------------------------------------------------------------------------

G|----------------------------------------------------------------------
D|----------------------------------------------------------------------
A|33333333-55555555-7777777777777777-33333333-55555555-7777777777777777-
E|----------------------------------------------------------------------

Chorus

G|-----------------------------------------------------------------
D|-----------------------------------------------------------------
A|3333333333333333-00--00--00--00--3333333333333333-00--00--00--00-
E|-----------------------------------------------------------------

G|------------------------------------------------------------------------
D|------------------------------------------------------------------------
A|3333333-7777-5555-33333333-7777-5555-0000000000000000-33333333-55555555-
E|------------------------------------------------------------------------

G|--------------------------------
D|--------------------------------
A|33--33--33--33--33--33--33--33--
E|--------------------------------

Bridge

G|3333333333333333-55555555-77777777-3333333333333333-55555555-77777777-
D|----------------------------------------------------------------------
A|----------------------------------------------------------------------
E|----------------------------------------------------------------------

G|--------------------------------------
D|33333333-5555-7777-33333333-5555-7777-
A|--------------------------------------
E|--------------------------------------

Final Chorus (Alternate)

G|-----------------------------------------------------------------
D|-----------------------------------------------------------------
A|3333333333333333-00--00--00--00--3333333333333333-00--00--00--00-
E|-----------------------------------------------------------------

G|------------------------------------------------------------------------
D|------------------------------------------------------------------------
A|3333333-7777-5555-33333333-7777-5555-0000000000000000-33333333-55555555-
E|------------------------------------------------------------------------

G|--------------------------------
D|--------------------------------
A|33--33--33--33--33--33--33--33--
E|--------------------------------

G|--------------------------------------------------------------------------
D|--------------------------------------------------------------------------
A|33--33--33--33-00-33--33--33--33-00-33--33--33--33-00-33--33--33--33-00-33
E|--------------------------------------------------------------------------


[["."],["."],["."],["."],["15"],["."]]

Member for

8 years 2 months
Submitted by MakingFriendsW… on Thu, 2012-03-29 06:14