Making friends with mirrors

Chords

01234567891011121314151617181920212223
E
B
G
D
A
E
B
0 1 2 3 4 5 6 7 8 9 10 11 12 13 14 15 16 17 18 19 20 21 22 23
Tuning: Drop D



First verse
E|-----------------------------------------------------------
B|-----------------------------------------------------------
G|-----------------------335-3-2-----------------------------
D|--000-3--000-3--000-3-0------------7-----7-----7---77-8-7-6
A|-------------------------------000---000---000---0---------
D|-----------------------------------------------------------

E|-----------------------------------------------------------
B|-----------------------------------------------------------
G|-----------------------335-3-2-----------------------------
D|--000-3--000-3--000-3-0------------7-----7-----7---77-8-7-6
A|-------------------------------000---000---000---0---------
D|-----------------------------------------------------------

E|-----------------------------------------------------------
B|-----------------------------------------------------------
G|-----------------------335-3-2-----------------------------
D|--000-3--000-3--000-3-0------------7-----7-----7---77-8-7-6
A|-------------------------------000---000---000---0---------
D|-----------------------------------------------------------

E|-----------------------------------------------------------
B|-----------------------------------------------------------
G|-----------------------335-3-2-----------------------------
D|--000-3--000-3--000-3-0------------7-----7-----7---77-8-7-6
A|-------------------------------000---000---000---0---------
D|-----------------------------------------------------------

E|---------------------------------------------------------------
B|---------------------------------------------------------------
G|-------------------------335-3-2-------------------------------
D|-000-333-000-333-000-330------------777-----777-----77--778-7-6
A|--------------------------------000-----000-----000---0--------
D|---------------------------------------------------------------

E|-----------------------------------------------------------------
B|-----------------------------------------------------------------
G|-------------------------335-3-2---------------------------------
D|-000-333-000-333-000-330------------777-----777-----77--778-11-12
A|--------------------------------000-----000-----000---0----------
D|-----------------------------------------------------------------

Chorus
E|---------------------------------------------------------------
B|---------------------------------------------------------------
G|---------------------------------------------------------------
D|0-000-00-000-00-8-888-88-888-88-3-333-33-333-33-7-777-77-777-77
A|0-000-00-000-00-8-888-88-888-88-3-333-33-333-33-7-777-77-777-77
D|0-000-00-000-00-8-888-88-888-88-3-333-33-333-33-7-777-77-777-77

E|--------------------------------------------------------
B|--------------------------------------------------------
G|--------------------------------------------------------
D|0-000-00-000-00-8-888-88-888-88-3-333-33-333-33-777-7-7-
A|0-000-00-000-00-8-888-88-888-88-3-333-33-333-33-777-7-7-
D|0-000-00-000-00-8-888-88-888-88-3-333-33-333-33-777-7-7-

Second verse

E|-----------------------------------------------------------
B|-----------------------------------------------------------
G|-----------------------335-3-2-----------------------------
D|--000-3--000-3--000-3-0------------7-----7-----7---77-8-7-6
A|-------------------------------000---000---000---0---------
D|-----------------------------------------------------------

E|-----------------------------------------------------------
B|-----------------------------------------------------------
G|-----------------------335-3-2-----------------------------
D|--000-3--000-3--000-3-0------------7-----7-----7---77-8-7-6
A|-------------------------------000---000---000---0---------
D|-----------------------------------------------------------

E|---------------------------------------------------------------
B|---------------------------------------------------------------
G|-------------------------335-3-2-------------------------------
D|-000-333-000-333-000-330------------777-----777-----77--778-7-6
A|--------------------------------000-----000-----000---0--------
D|---------------------------------------------------------------

E|-----------------------------------------------------------------
B|-----------------------------------------------------------------
G|-------------------------335-3-2---------------------------------
D|-000-333-000-333-000-330------------777-----777-----77--778-11-12
A|--------------------------------000-----000-----000---0----------
D|-----------------------------------------------------------------

Chorus
E|---------------------------------------------------------------
B|---------------------------------------------------------------
G|---------------------------------------------------------------
D|0-000-00-000-00-8-888-88-888-88-3-333-33-333-33-7-777-77-777-77
A|0-000-00-000-00-8-888-88-888-88-3-333-33-333-33-7-777-77-777-77
D|0-000-00-000-00-8-888-88-888-88-3-333-33-333-33-7-777-77-777-77

E|--------------------------------------------------------
B|--------------------------------------------------------
G|--------------------------------------------------------
D|0-000-00-000-00-8-888-88-888-88-3-333-33-333-33-777-7-7-
A|0-000-00-000-00-8-888-88-888-88-3-333-33-333-33-777-7-7-
D|0-000-00-000-00-8-888-88-888-88-3-333-33-333-33-777-7-7-
[[],[],[],[],[],[]]

Member for

8 years 2 months
Submitted by MakingFriendsW… on Thu, 2012-03-22 12:49