Sound will begin in 5 seconds

Omni

01234567891011121314151617181920212223
E
B
G
D
A
E
B
0 1 2 3 4 5 6 7 8 9 10 11 12 13 14 15 16 17 18 19 20 21 22 23
(/) Slide Up  (\) Slide Down  (h) Hammer On  (p) Pull Off  (b) Bend (r) Release (v) Vibrato

Stave 1:

E|----------------------------------------6------6-10----6-10-20-10-18-10-6----------------------------
B|-----------------------------------------------------------------------------------------------------
G|-------------------3------3-7-12-3-7-14---7-14------14--------------------8-7--------7-10-11-7-10-11-
D|----------------10------------------------------------------------------------8----------------------
A|-----1-5-10-1-5------5-12-------------------------------------------------------9-13-----------------
E|-2-3-------------------------------------------------------------------------------------------------

Stave 2:

E|-6-------6-10-13-10-11-10-6--------------------------------10-13-20-13-10-----------------9-12-16-12-
B|-----------------------------------------------------------------------------------------------------
G|---10-11--------------------10-11-10-7------------10-11-15----------------17-11-10-6-9-13------------
D|-----------------------------------------------------------------------------------------------------
A|---------------------------------------13-9/12-17----------------------------------------------------
E|-----------------------------------------------------------------------------------------------------

Stave 3:

E|-14-12-9-11-9-8-----------------------5-9-11/12\11-9-5---------------9-12-16-12-9---------------------
B|------------------------------------------------------------------------------------------------------
G|----------------11-9-8----6----5-8-13------------------13-8-5-6-9-13--------------18-9-8--------------
D|------------------------------------------------------------------------------------------------10----
A|-----------------------12---11-----------------------------------------------------------11-8-6----16-
E|------------------------------------------------------------------------------------------------------

Stave 4:

E|----------9-13-16-13-9----------------------------9-11-13-16-13-9----
B|---------------------------------------------------------------------
G|-10-13-17--------------13-17-13-10----10-12-13-17-----------------17-
D|---------------------------------------------------------------------
A|-----------------------------------16--------------------------------
E|---------------------------------------------------------------------

http://www.guitartabcreator.com
Guitar Tab Creator is intended to store guitar tab created through the tool. It currently does not support in-line text editing. Any text you place in here will be lost. If you need to comment on your tab, please use the "Tab Notes" section located below.