Sound will begin in 5 seconds

medium rare

01234567891011121314151617181920212223
E
B
G
D
A
E
B
0 1 2 3 4 5 6 7 8 9 10 11 12 13 14 15 16 17 18 19 20 21 22 23
Song Science #1: How Pros Use 6 Chords to Write Hit Songs
(/) Slide Up  (\) Slide Down  (h) Hammer On  (p) Pull Off  (b) Bend (r) Release (v) Vibrato

Stave 1:

E|---------------------------------------------------------------------------------------
B|---------------------------------------------------------------------------------------
G|---------------------------------------------------------------------------------------
D|-----------8--8--------------------------------------------------------------5--7--10--
A|-----------------------------------------------------------3--5--8--3--5--8------------
E|--6--6--6--------3--3--0--3--5--6--10--10--10--10--10--10------------------------------

Stave 2:

E|-------------------------
B|-------6-----6-----6-----
G|----7-----7-----7-----7--
D|-------------------------
A|-------------------------
E|-------------------------

Stave 3:

E|------------------------
B|------------------------
G|------------------------
D|--5----8----12--11--12--
A|--5----8----12--11--12--
E|--3----6----10--9---10--

Stave 4:

E|------------------------------------------------
B|------------------------------------------------
G|------------------------------------------------
D|----5----8----12----11--12--11--12--11----8--8--
A|----5----8----12----11--12--11--12--11----8--8--
E|----3----6----10----9---10--9---10--9-----6--6--

Stave 5:

E|------------------------------------------------------------------
B|------------------------------------------------------------------
G|------------------------------------------------------------------
D|------------------------------------------------------------------
A|---------10----8----4--3--4--1-----------10--8--4--3--4--1--------
E|----3---------------------------------3---------------------------

Stave 6:

E|--------------------------------------------------------------------------------
B|--------------------------------------------------------------------------------
G|--------------------------------------------------------------------------------
D|----------------------------16--15--12--13--20--19------------------------------
A|-----10--8--15--13--18--17--------------------------15--16--15--16--15----------
E|--3---------------------------------------------------------------------16--15--

http://www.guitartabcreator.com
Guitar Tab Creator is intended to store guitar tab created through the tool. It currently does not support in-line text editing. Any text you place in here will be lost. If you need to comment on your tab, please use the "Tab Notes" section located below.