Sound will begin in 5 seconds

gina works at hearts

01234567891011121314151617181920212223
E
B
G
D
A
E
B
0 1 2 3 4 5 6 7 8 9 10 11 12 13 14 15 16 17 18 19 20 21 22 23
Song Science #1: How Pros Use 6 Chords to Write Hit Songs
(/) Slide Up  (\) Slide Down  (h) Hammer On  (p) Pull Off  (b) Bend (r) Release (v) Vibrato

Stave 1:

E|-------------------
B|-------------------
G|-------------------
D|--8--7--10--4--12--
A|--8--7--10--4--12--
E|--6--5--8---2--10--

Stave 2:

E|--------------
B|------10------
G|--15--12--12--
D|--15--12--12--
A|--13------10--
E|--------------

Stave 3:

E|------------|--|----------------------------------
B|------------|--|----------------------------------
G|------------|--|----------------------------------
D|--7--10--5--|--|--14--14--17--14--10--10------10--
A|--7--10--5--|--|--------------------------12------
E|--7--10--5--|--|----------------------------------

Stave 4:

E|------------------|------|-----------------------------------------------------------------------
B|------------------|------|------------------------10--8--10--------------------------------------
G|------------------|------|----------8------8-------------------------8------8------8--10--8--10--
D|------------------|------|--10--10-----10-----10-------------10--10-----10-----10----------------
A|--15--17--12--14--|--15--|-----------------------------------------------------------------------
E|--13--15--10--12--|--13--|-----------------------------------------------------------------------

Stave 5:

E|-----------------------------------------------------------------------------------
B|-----------------------------------------------------------------------------------
G|-----------------------------7--10--7--10--7--10--7--5-----------------------------
D|--7--10--7--10--7--10--7--5-----------------------------7--10--7--10--7--10--7--5--
A|-----------------------------------------------------------------------------------
E|-----------------------------------------------------------------------------------

Stave 6:

E|----------------------------------------------------15--14--12--10--|--5--|--
B|--10--13--10--12--10--13--15--13----10--13--10--12------------------|-----|--
G|--------------------------------------------------------------------|-----|--
D|--------------------------------------------------------------------|-----|--
A|--------------------------------------------------------------------|-----|--
E|--------------------------------------------------------------------|-----|--

http://www.guitartabcreator.com
Guitar Tab Creator is intended to store guitar tab created through the tool. It currently does not support in-line text editing. Any text you place in here will be lost. If you need to comment on your tab, please use the "Tab Notes" section located below.