Sound will begin in 5 seconds

Silent Lanes

01234567891011121314151617181920212223
E
B
G
D
A
E
B
0 1 2 3 4 5 6 7 8 9 10 11 12 13 14 15 16 17 18 19 20 21 22 23
Song Science #1: How Pros Use 6 Chords to Write Hit Songs
(/) Slide Up  (\) Slide Down  (h) Hammer On  (p) Pull Off  (b) Bend (r) Release (v) Vibrato

Stave 1:

E|----------------------------------------------
B|----------11--------------10---------------8--
G|------12--------------10----------------8-----
D|--13--------------12----------------10--------
A|----------------------------------------------
E|----------------------------------------------

Stave 2:

E|-------------------------------------------------------------------------|-------------------------------
B|-----8-----8-----------10-------------11---------------------10----------|------11-----------------------
G|--8-----8-----8--8/10------10-------------10-------------10------10------|----------8--------------------
D|-------------------------------10h12----------12--10h12--------------12--|--10---------------------------
A|-------------------------------------------------------------------------|-------------------------------
E|-------------------------------------------------------------------------|-------------------------------

Stave 3:

E|-----------------------------------------------------------------8---
B|------11---------11---------11---------8---------8---------8-----8---
G|----------8----------8----------8---------8---------8---------8--8---
D|--10---------10---------10---------10--------10--------10--------10--
A|---------------------------------------------------------------------
E|---------------------------------------------------------------------

Stave 4:

E|------|----------|----------|----------|----------|----------|--------|----------|--
B|--13--|------13--|------11--|------15--|------13--|------11--|-----8--|------10--|--
G|------|--14------|--12------|--15------|--14------|--12------|--8-----|--10------|--
D|------|----------|----------|----------|----------|----------|--------|----------|--
A|------|----------|----------|----------|----------|----------|--------|----------|--
E|------|----------|----------|----------|----------|----------|--------|----------|--

Stave 5:

E|--------|----------|--------|--------|----------|----------|------
B|-----8--|------11--|-----4--|-----3--|------10--|------11--|--10--
G|--8-----|--12------|--5-----|--3-----|--10------|--12------|--10--
D|--------|----------|--------|--------|----------|----------|------
A|--------|----------|--------|--------|----------|----------|------
E|--------|----------|--------|--------|----------|----------|------

http://www.guitartabcreator.com
Guitar Tab Creator is intended to store guitar tab created through the tool. It currently does not support in-line text editing. Any text you place in here will be lost. If you need to comment on your tab, please use the "Tab Notes" section located below.