Sound will begin in 5 seconds

Home 2

01234567891011121314151617181920212223
E
B
G
D
A
E
B
0 1 2 3 4 5 6 7 8 9 10 11 12 13 14 15 16 17 18 19 20 21 22 23
Song Science #1: How Pros Use 6 Chords to Write Hit Songs
(/) Slide Up  (\) Slide Down  (h) Hammer On  (p) Pull Off  (b) Bend (r) Release (v) Vibrato

Stave 1:

E|----------------------------------------------------------
B|------11------11------13------13-----3-----3-----0-----0--
G|--12------12------13------13------------------------------
D|----------------------------------3-----3-----3-----3-----
A|----------------------------------------------------------
E|----------------------------------------------------------

Stave 2:

E|--11--|------
B|--11--|--0---
G|--12--|--8---
D|------|--10--
A|------|------
E|------|------

Stave 3:

E|----------------------------------------------------------|----------11--------------11----------
B|------11------11------13------13-----3-----3-----0-----0--|------11------11------11------11------
G|--12------12------13------13------------------------------|--12--------------12--------------12--
D|----------------------------------3-----3-----3-----3-----|--------------------------------------
A|----------------------------------------------------------|--------------------------------------
E|----------------------------------------------------------|--------------------------------------

Stave 4:

E|----------0--------------0-------------------------------------------4-----------4--------
B|------13-----13------13-----13------------0-----------0-----------------6-----------6-----
G|--13-------------13-------------13-----8-----8-----8-----8--------5--------5-----------5--
D|------------------------------------6-----------6-----------6-----------------------------
A|---------------------------------------------------------------6--------------6-----------
E|------------------------------------------------------------------------------------------

Stave 5:

E|----------11--------------11------------------0--------------0-------------------------------------
B|------11------11------11------11----------13-----13------13-----13------------0-----------0--------
G|--12--------------12--------------12--13-------------13-------------13-----8-----8-----8-----8-----
D|------------------------------------------------------------------------6-----------6-----------6--
A|---------------------------------------------------------------------------------------------------
E|---------------------------------------------------------------------------------------------------

Stave 6:

E|-------------0--------------------0---------
B|---------11-----11------------11-----11-----
G|------8-------------8------8-------------8--
D|--10-------------------10-------------------
A|--------------------------------------------
E|--------------------------------------------

Stave 7:

E|----------------------------|--------------------------------
B|----------------------------|--------------------------------
G|--0--5--6--8--10--10--5--5--|--6--8--10--13--10--10--5--5----
D|----------------------------|--------------------------------
A|----------------------------|--------------------------------
E|----------------------------|--------------------------------

http://www.guitartabcreator.com
Guitar Tab Creator is intended to store guitar tab created through the tool. It currently does not support in-line text editing. Any text you place in here will be lost. If you need to comment on your tab, please use the "Tab Notes" section located below.