Sound will begin in 5 seconds

golden hour

01234567891011121314151617181920212223
E
B
G
D
A
E
B
0 1 2 3 4 5 6 7 8 9 10 11 12 13 14 15 16 17 18 19 20 21 22 23
Song Science #1: How Pros Use 6 Chords to Write Hit Songs
(/) Slide Up  (\) Slide Down  (h) Hammer On  (p) Pull Off  (b) Bend (r) Release (v) Vibrato

Stave 1:

E|--------------------|----------
B|--9----8------------|----------
G|------------5----7--|--8p7-----
D|-------6------------|-------8--
A|--8---------6-------|----------
E|-----------------8--|----------

Stave 2:

E|-------------------------------------------------------------------------------------------------------
B|--------------------------------------------8--------------8-----------------11--------------11--------
G|-----------8--------------8-----------5--------5-----5--------5--------8---------8-----8---------8-----
D|-----6--------6-----6--------6-----6-----6--------6-----6--------6--8-----8---------8-----8------------
A|--8-----8--------8-----8--------8----------------------------------------------------------------------
E|-------------------------------------------------------------------------------------------------------

Stave 3:

E|--------------------------------------
B|--------------------------------------
G|--------------5--------------5--------
D|--8-----0--------0-----0--------0-----
A|-----5-----5--------5-----5--------5--
E|--------------------------------------

Stave 4:

E|--8-----4----6-------
B|--9-----6----8----6--
G|--10----5----8----8--
D|------------------8--
A|---------------------
E|---------------------

Stave 5:

E|--------|--------|--------|---------
B|-----8--|--------|--------|---------
G|--------|--------|-----5--|-----10--
D|--8-----|-----5--|--------|---------
A|--------|--0-----|--6-----|--8------
E|--------|--------|--------|---------

Stave 6:

E|------11--|--|------10-----6------8--
B|--13------|--|--11------8-----11-----
G|----------|--|-----------------------
D|----------|--|-----------------------
A|----------|--|-----------------------
E|----------|--|-----------------------

Stave 7:

E|--------|----------------------
B|-----8--|------11--------------
G|--------|-------------5-----8--
D|--8-----|--10------------------
A|--------|----------6-----8-----
E|--------|----------------------

http://www.guitartabcreator.com
Guitar Tab Creator is intended to store guitar tab created through the tool. It currently does not support in-line text editing. Any text you place in here will be lost. If you need to comment on your tab, please use the "Tab Notes" section located below.