Sound will begin in 5 seconds

Alaskan

01234567891011121314151617181920212223
E
B
G
D
A
E
B
0 1 2 3 4 5 6 7 8 9 10 11 12 13 14 15 16 17 18 19 20 21 22 23
Song Science #1: How Pros Use 6 Chords to Write Hit Songs
(/) Slide Up  (\) Slide Down  (h) Hammer On  (p) Pull Off  (b) Bend (r) Release (v) Vibrato

Stave 1:

E|--------
B|-----7--
G|--------
D|--------
A|--9-----
E|--------

Stave 2:

E|--2--|--5--|--2--|--5--|--2--|--5--|-----5--
B|--0--|--3--|--3--|--5--|--0--|--3--|-----7--
G|--4--|--0--|--2--|--7--|--4--|--0--|-----0--
D|--4--|--4--|--4--|--7--|--4--|--4--|-----7--
A|-----|-----|-----|-----|-----|-----|--------
E|-----|-----|-----|-----|-----|-----|--------

Stave 3:

E|--------|--------
B|--7-----|--------
G|--------|--------
D|--------|--7-----
A|-----9--|-----9--
E|--------|--------

Stave 4:

E|--2--|--5--|--2--|--0--|--2--|-----|--2--|--5--
B|--0--|--3--|--3--|--5--|--0--|--8--|--3--|--7--
G|--4--|--0--|--2--|--7--|--4--|--7--|--2--|--0--
D|--4--|--4--|--4--|--7--|--4--|--9--|--4--|--7--
A|-----|-----|-----|-----|-----|--9--|-----|-----
E|-----|-----|-----|-----|-----|-----|-----|-----

Stave 5:

E|-----------0-----------------0-----------------0-----------------0--------
B|--------3-----3-----------3-----3-----------3-----3-----------3-----3-----
G|-----2-----------2-----2-----------2-----2-----------2-----2-----------2--
D|--4-----------------4-----------------5-----------------5-----------------
A|--------------------------------------------------------------------------
E|--------------------------------------------------------------------------

Stave 6:

E|--------------0----------------------0----------------------0----------
B|----------10-----10--------------10-----10--------------10-----10------
G|------11-------------11------11-------------11------11-------------11--
D|--12---------------------12---------------------12---------------------
A|-----------------------------------------------------------------------
E|-----------------------------------------------------------------------

Stave 7:

E|--------------0----------|--10--
B|----------10-----10------|--10--
G|------11-------------11--|--11--
D|--12---------------------|--12--
A|-------------------------|------
E|-------------------------|------

Stave 8:

E|------------------------------------------------------------------------------------------------
B|--------------10----------------------10---------------------10---------------------10----------
G|----------11------11--------------11------11-------------11------11-------------11------11------
D|------12--------------12------12--------------12-----12--------------12-----12--------------12--
A|--10----------------------10--------------------------------------------------------------------
E|--------------------------------------------------0----------------------0----------------------

Stave 9:

E|-------------------------------------------------------------10---------------------10----------
B|--------------10----------------------10-------------------------10---------------------10------
G|----------11------11--------------11------11-------------11----------11---------11----------11--
D|------12--------------12------12--------------12-----12---------------------12------------------
A|--10----------------------10--------------------------------------------------------------------
E|--------------------------------------------------0----------------------0----------------------

Stave 10:

E|-----|--3--|-----|-------------|--2--|--3--|----------------
B|--3--|--3--|-----|--------1/5--|--3--|--3--|--------1/5--7--
G|--2--|--2--|--2--|--3--2-------|--2--|--2--|--3--2----------
D|--0--|--4--|--4--|--4----------|--4--|--4--|--4-------------
A|--0--|--0--|--0--|--0----------|--0--|--0--|--0-------------
E|--0--|--0--|--0--|--0----------|--0--|--0--|--0----------0--

http://www.guitartabcreator.com
Guitar Tab Creator is intended to store guitar tab created through the tool. It currently does not support in-line text editing. Any text you place in here will be lost. If you need to comment on your tab, please use the "Tab Notes" section located below.