Sound will begin in 5 seconds

Für Elisabeth

01234567891011121314151617181920212223
E
B
G
D
A
E
B
0 1 2 3 4 5 6 7 8 9 10 11 12 13 14 15 16 17 18 19 20 21 22 23
Song Science #1: How Pros Use 6 Chords to Write Hit Songs
(/) Slide Up  (\) Slide Down  (h) Hammer On  (p) Pull Off  (b) Bend (r) Release (v) Vibrato

Stave 1:

E|---------------------------------------------------------------------------------------------------------
B|---------------------------------------------------------------------------------------------------------
G|---------------------------------------------------------------------------------------------------------
D|--------7-----------7-----------9-----------10-----------5-----------5-----------3-----------3-----------
A|-----0-----0-----0-----0-----0-----0-----0------0-----0-----0-----0-----0-----0-----0-----0-----0--------
E|--0-----------0-----------0-----------0------------0-----------0-----------0-----------0-----------0-----

Stave 2:

E|------------------------------------------------------------------------------------------------------
B|------------------------------------------------------------------------------------------------------
G|------------------------------------------------------------------------------------------------------
D|-----2-----------2-----------2h3-----------3-----------3-----------3p2-----------2-----------2--------
A|--0-----0-----0-----0-----0-------0-----0-----0-----0-----0-----0-------0-----0-----0-----0-----0-----
E|-----------0-----------0-------------0-----------0-----------0-------------0-----------0-----------0--

Stave 3:

E|-------------------------------------------------------------------------------------------------------
B|-------------------------------------------------------------------------------------------------------
G|-------------------------------------------------------------------------------------------------------
D|-----2h3-----------0-----------0-----------7-----------9-----------10-----------5h7-----------7--------
A|--0-------0-----0-----0-----0-----0-----0-----0-----0-----0-----0------0-----0-------0-----0-----0-----
E|-------------0-----------0-----------0-----------0-----------0------------0-------------0-----------0--

Stave 4:

E|-------------------------------------------------------------------------------------------------
B|-------------------------------------------------------------------------------------------------
G|-------------------------------------------------------------------------------------------------
D|-----9-----------10-----------5h7-----------7-----------9-----------10-----------5h7--5\7--------
A|--0-----0-----0------0-----0-------0-----0-----0-----0-----0-----0------0-----0------------0-----
E|-----------0------------0-------------0-----------0-----------0------------0------------------0--

Stave 5:

E|------------------------------------------------------------------------------------------------------
B|------------------------------------------------------------------------------------------------------
G|------------------------------------------------------------------------------------------------------
D|--------7-----------7-----------9-----------10-----------5-----------5-----------3-----------3--------
A|-----0-----0-----0-----0-----0-----0-----0------0-----0-----0-----0-----0-----0-----0-----0-----0-----
E|--0-----------0-----------0-----------0------------0-----------0-----------0-----------0-----------0--

Stave 6:

E|------------------------------------------------------------------------------------------------------
B|------------------------------------------------------------------------------------------------------
G|------------------------------------------------------------------------------------------------------
D|-----2-----------2-----------2h3-----------3-----------3-----------3p2-----------2-----------2--------
A|--0-----0-----0-----0-----0-------0-----0-----0-----0-----0-----0-------0-----0-----0-----0-----0-----
E|-----------0-----------0-------------0-----------0-----------0-------------0-----------0-----------0--

Stave 7:

E|---------------------------------------------------------------------------------------------------------
B|---------------------------------------------------------------------------------------------------------
G|---------------------------------------------------------------------------------------------------------
D|-----2p0-----------9-----------10-----------7-----------9h10-----------9-----------10-----------7--------
A|--0-------0-----0-----0-----0------0-----0-----0-----0--------0-----0-----0-----0------0-----0-----0-----
E|-------------0-----------0------------0-----------0--------------0-----------0------------0-----------0--

Stave 8:

E|---------------------------------------------------------------------------------10--9----------------
B|--------------------------------------------------------------------------10--9---------10--9---------
G|-------------------------------------------------------------------10--9-----------------------10--9--
D|-----9h10-----------9-----------10-----------7-----------9--10--9-------------------------------------
A|--0--------0-----0-----0-----0------0-----0-----0-----0-----------------------------------------------
E|--------------0-----------0------------0-----------0--------------------------------------------------

Stave 9:

E|-----------------------------------------------------------------------------------
B|-----------------------------------------------------------------------------------
G|-----------------------------------------------------------------------------------
D|--10--9/7--------9--------7--------5--------3--------9--------7--------5--------3--
A|--------------9--------7--------5--------3--------9--------7--------5--------3-----
E|-----------7--------5--------3--------1--------7--------5--------3--------1--------

Stave 10:

E|------------------------------
B|------------------------------
G|------------------------------
D|--------3-------5-------7-----
A|-----3-----3\5-----5\7-----7--
E|--1---------------------------

http://www.guitartabcreator.com
Guitar Tab Creator is intended to store guitar tab created through the tool. It currently does not support in-line text editing. Any text you place in here will be lost. If you need to comment on your tab, please use the "Tab Notes" section located below.