Life Goes On

01234567891011121314151617181920212223
E
B
G
D
A
E
B
0 1 2 3 4 5 6 7 8 9 10 11 12 13 14 15 16 17 18 19 20 21 22 23
(/) Slide Up  (\) Slide Down  (h) Hammer On  (p) Pull Off  (b) Bend (r) Release (v) Vibrato

Stave 1:

E|--------------------------------------------------------------------------15b16--15\13p11--15b16-----
B|-----11h13--9h11-----11h13--9h11--13b14--11\9--11---------11h13--9h11--------------------------------
G|------------------8--------------------------------10------------------8-----------------------------
D|-----------------------------------------------------------------------------------------------------
A|-----------------------------------------------------------------------------------------------------
E|-----------------------------------------------------------------------------------------------------

Stave 2:

E|---------------------------------------------------------------------------------------------------------------------------
B|---------------------------------------------------------------------------------------------------------------------------
G|--6h8--8--8--8p6--5--5--5p3--3h5-----5--6-----8--8--8--8--8p6--5--5--5--3h5-----5/8--8--8--6--6--5--3--5/8--8--8--6--6--5--
D|---------------------------------------------------------------------------------------------------------------------------
A|---------------------------------------------------------------------------------------------------------------------------
E|---------------------------------------------------------------------------------------------------------------------------

Stave 3:

E|--------------------------------------------------------------------------------------------------------------
B|----------------------------------------9--9--9h11--11--13--11/13-----16\13--13--11h13--11--11--9--11--13b16--
G|--5--6/8--8--8--8p6--5--5--5\3--3h5---------------------------------------------------------------------------
D|--------------------------------------------------------------------------------------------------------------
A|--------------------------------------------------------------------------------------------------------------
E|--------------------------------------------------------------------------------------------------------------

Stave 4:

E|------------------------------------------
B|--11h13--13--13--11--11--9--9-----14--13--
G|------------------------------------------
D|------------------------------------------
A|------------------------------------------
E|------------------------------------------

Stave 5:

E|-----------------------------------------------------------------------------------------------
B|-----------------------------------------------------------------------------------------------
G|-----------------------------------------------------------------------------------------------
D|--6--8--8/10--8-----6/8-----6--6--8--8/10--8-----6/8-----6--8--8/10--8-----6/8--6--8--6--8/10--
A|-----------------6----------------------------6-------------------------6----------------------
E|-----------------------------------------------------------------------------------------------

Stave 6:

E|----------------------------------------------------------------------------------------
B|----------------------------------------------------------------------------------------
G|-----5--6--8--6--5h6p5------------------------------------------------------------------
D|------------------------8-----6--6--8--8/10--8-----6/8-----6--8--8/10--8-----6/8--8--6--
A|------------------------------------------------6-------------------------6-------------
E|----------------------------------------------------------------------------------------

Stave 7:

E|-------------------------------------------------------------------------------------------------------------------------------
B|-------------------------------------------------------------------------------------------------------------------------------
G|---------8----------------8----------------8--------------------------------8----------------8------12b13--12--10--8-----------
D|--8--10-----10-----8--10-----10-----8--10-----10-----8--10--8--6-----8--10-----10-----8--10-----10--------------------8h10--8--
A|-------------------------------------------------------------------------------------------------------------------------------
E|-------------------------------------------------------------------------------------------------------------------------------

Stave 8:

E|---------------------------------------------------------------------------------------------------------------------
B|--9--9--11--11/13--11-----9/11-----9--9--11--11/13--11-----9/11-----9--9--11--11/13--11-----9/11--9--9h11--9--11/13--
G|-----------------------8--------------------------------8--------------------------------8---------------------------
D|---------------------------------------------------------------------------------------------------------------------
A|---------------------------------------------------------------------------------------------------------------------
E|---------------------------------------------------------------------------------------------------------------------

Stave 9:

E|--8--9--11--9--8h9p8----------------------------------------------------------------------------
B|----------------------11--9--9--11--11/13--11-----9/11-----9--11--11/13--11-----9/11--9--11--9--
G|-----------------------------------------------8-----------------------------8------------------
D|------------------------------------------------------------------------------------------------
A|------------------------------------------------------------------------------------------------
E|------------------------------------------------------------------------------------------------

Stave 10:

E|----------11-----------------11--------------11-----------------------------------11-----------------11------15b16--15--13--11---------
B|--11--13------13-----11--13------13--11--13------13-----11--13--11--9-----11--13------13-----11--13------13---------------------11h13--
G|---------------------------------------------------------------------------------------------------------------------------------------
D|---------------------------------------------------------------------------------------------------------------------------------------
A|---------------------------------------------------------------------------------------------------------------------------------------
E|---------------------------------------------------------------------------------------------------------------------------------------

Stave 11:

E|------------11-----------------11------
B|--9h11--13------13-----11--13------13--
G|---------------------------------------
D|---------------------------------------
A|---------------------------------------
E|---------------------------------------

							http://www.guitartabcreator.com
Chords

Instruments
{"strings":[[["_",".",".",".",".",".",".",".",".",".",".",".",".",".",".",".",".",".",".",".",".",".","_",".",".",".",".",".",".",".",15,"b",16,15,"\\",13,"p",11,15,"b",16,"_"],["_",11,"h",13,9,"h",11,".",11,"h",13,9,"h",11,13,"b",14,11,"\\",9,11,".","_",11,"h",13,9,"h",11,".",".",".",".",".",".",".",".",".",".",".",".","_"],["_",".",".",".",".",".",".",8,".",".",".",".",".",".",".",".",".",".",".",".",".",10,"_",".",".",".",".",".",".",8,".",".",".",".",".",".",".",".",".",".",".","_"],["_",".",".",".",".",".",".",".",".",".",".",".",".",".",".",".",".",".",".",".",".",".","_",".",".",".",".",".",".",".",".",".",".",".",".",".",".",".",".",".",".","_"],["_",".",".",".",".",".",".",".",".",".",".",".",".",".",".",".",".",".",".",".",".",".","_",".",".",".",".",".",".",".",".",".",".",".",".",".",".",".",".",".",".","_"],["_",".",".",".",".",".",".",".",".",".",".",".",".",".",".",".",".",".",".",".",".",".","_",".",".",".",".",".",".",".",".",".",".",".",".",".",".",".",".",".",".","_"]],[[".",".",".",".",".",".",".",".",".",".",".",".",".",".",".",".","_",".",".","_",".",".",".",".",".",".",".",".",".",".",".",".",".","_",".",".",".",".",".",".",".",".",".",".",".",".",".",".",".",".","."],[".",".",".",".",".",".",".",".",".",".",".",".",".",".",".",".","_",".",".","_",".",".",".",".",".",".",".",".",".",".",".",".",".","_",".",".",".",".",".",".",".",".",".",".",".",".",".",".",".",".","."],[6,"h",8,8,8,8,"p",6,5,5,5,"p",3,3,"h",5,"_",5,6,"_",8,8,8,8,8,"p",6,5,5,5,3,"h",5,"_",5,"/",8,8,8,6,6,5,3,5,"/",8,8,8,6,6,5],[".",".",".",".",".",".",".",".",".",".",".",".",".",".",".",".","_",".",".","_",".",".",".",".",".",".",".",".",".",".",".",".",".","_",".",".",".",".",".",".",".",".",".",".",".",".",".",".",".",".","."],[".",".",".",".",".",".",".",".",".",".",".",".",".",".",".",".","_",".",".","_",".",".",".",".",".",".",".",".",".",".",".",".",".","_",".",".",".",".",".",".",".",".",".",".",".",".",".",".",".",".","."],[".",".",".",".",".",".",".",".",".",".",".",".",".",".",".",".","_",".",".","_",".",".",".",".",".",".",".",".",".",".",".",".",".","_",".",".",".",".",".",".",".",".",".",".",".",".",".",".",".",".","."]],[[".",".",".",".",".",".",".",".",".",".",".",".",".",".",".",".",".","_",".",".",".",".",".",".",".",".",".",".","_",".",".",".",".",".",".",".",".",".",".",".",".",".","."],[".",".",".",".",".",".",".",".",".",".",".",".",".",".",".",".",".","_",9,9,9,"h",11,11,13,11,"/",13,"_",16,"\\",13,13,11,"h",13,11,11,9,11,13,"b",16],[5,6,"/",8,8,8,8,"p",6,5,5,5,"\\",3,3,"h",5,"_",".",".",".",".",".",".",".",".",".",".","_",".",".",".",".",".",".",".",".",".",".",".",".",".","."],[".",".",".",".",".",".",".",".",".",".",".",".",".",".",".",".",".","_",".",".",".",".",".",".",".",".",".",".","_",".",".",".",".",".",".",".",".",".",".",".",".",".","."],[".",".",".",".",".",".",".",".",".",".",".",".",".",".",".",".",".","_",".",".",".",".",".",".",".",".",".",".","_",".",".",".",".",".",".",".",".",".",".",".",".",".","."],[".",".",".",".",".",".",".",".",".",".",".",".",".",".",".",".",".","_",".",".",".",".",".",".",".",".",".",".","_",".",".",".",".",".",".",".",".",".",".",".",".",".","."]],[[".",".",".",".",".",".",".",".",".","_",".","."],[11,"h",13,13,13,11,11,9,9,"_",14,13],[".",".",".",".",".",".",".",".",".","_",".","."],[".",".",".",".",".",".",".",".",".","_",".","."],[".",".",".",".",".",".",".",".",".","_",".","."],[".",".",".",".",".",".",".",".",".","_",".","."]],[[".",".",".",".",".",".",".",".",".",".","_",".",".",".",".",".",".",".",".",".",".",".","_",".",".",".",".",".",".",".",".",".",".",".",".",".",".",".","."],[".",".",".",".",".",".",".",".",".",".","_",".",".",".",".",".",".",".",".",".",".",".","_",".",".",".",".",".",".",".",".",".",".",".",".",".",".",".","."],[".",".",".",".",".",".",".",".",".",".","_",".",".",".",".",".",".",".",".",".",".",".","_",".",".",".",".",".",".",".",".",".",".",".",".",".",".",".","."],[6,8,8,"/",10,8,".",6,"/",8,"_",6,6,8,8,"/",10,8,".",6,"/",8,"_",6,8,8,"/",10,8,".",6,"/",8,6,8,6,8,"/",10],[".",".",".",".",".",".",6,".",".",".","_",".",".",".",".",".",".",".",6,".",".",".","_",".",".",".",".",".",".",6,".",".",".",".",".",".",".",".","."],[".",".",".",".",".",".",".",".",".",".","_",".",".",".",".",".",".",".",".",".",".",".","_",".",".",".",".",".",".",".",".",".",".",".",".",".",".",".","."]],[["_",".",".",".",".",".",".",".",".",".",".","_",".",".",".",".",".",".",".",".",".",".",".","_",".",".",".",".",".",".",".",".",".",".",".","."],["_",".",".",".",".",".",".",".",".",".",".","_",".",".",".",".",".",".",".",".",".",".",".","_",".",".",".",".",".",".",".",".",".",".",".","."],["_",5,6,8,6,5,"h",6,"p",5,".","_",".",".",".",".",".",".",".",".",".",".",".","_",".",".",".",".",".",".",".",".",".",".",".","."],["_",".",".",".",".",".",".",".",".",".",8,"_",6,6,8,8,"/",10,8,".",6,"/",8,"_",6,8,8,"/",10,8,".",6,"/",8,8,6],["_",".",".",".",".",".",".",".",".",".",".","_",".",".",".",".",".",".",".",6,".",".",".","_",".",".",".",".",".",".",6,".",".",".",".","."],["_",".",".",".",".",".",".",".",".",".",".","_",".",".",".",".",".",".",".",".",".",".",".","_",".",".",".",".",".",".",".",".",".",".",".","."]],[[".",".",".",".","_",".",".",".",".","_",".",".",".",".","_",".",".",".",".","_",".",".",".",".","_",".",".",".",".",".",".",".",".",".",".",".",".",".","."],[".",".",".",".","_",".",".",".",".","_",".",".",".",".","_",".",".",".",".","_",".",".",".",".","_",".",".",".",".",".",".",".",".",".",".",".",".",".","."],[".",".",8,".","_",".",".",8,".","_",".",".",8,".","_",".",".",".",".","_",".",".",8,".","_",".",".",8,".",12,"b",13,12,10,8,".",".",".","."],[8,10,".",10,"_",8,10,".",10,"_",8,10,".",10,"_",8,10,8,6,"_",8,10,".",10,"_",8,10,".",10,".",".",".",".",".",".",8,"h",10,8],[".",".",".",".","_",".",".",".",".","_",".",".",".",".","_",".",".",".",".","_",".",".",".",".","_",".",".",".",".",".",".",".",".",".",".",".",".",".","."],[".",".",".",".","_",".",".",".",".","_",".",".",".",".","_",".",".",".",".","_",".",".",".",".","_",".",".",".",".",".",".",".",".",".",".",".",".",".","."]],[[".",".",".",".",".",".",".",".",".",".",".","_",".",".",".",".",".",".",".",".",".",".",".","_",".",".",".",".",".",".",".",".",".",".",".",".",".",".",".",".",".",".","."],[9,9,11,11,"/",13,11,".",9,"/",11,"_",9,9,11,11,"/",13,11,".",9,"/",11,"_",9,9,11,11,"/",13,11,".",9,"/",11,9,9,"h",11,9,11,"/",13],[".",".",".",".",".",".",".",8,".",".",".","_",".",".",".",".",".",".",".",8,".",".",".","_",".",".",".",".",".",".",".",8,".",".",".",".",".",".",".",".",".",".","."],[".",".",".",".",".",".",".",".",".",".",".","_",".",".",".",".",".",".",".",".",".",".",".","_",".",".",".",".",".",".",".",".",".",".",".",".",".",".",".",".",".",".","."],[".",".",".",".",".",".",".",".",".",".",".","_",".",".",".",".",".",".",".",".",".",".",".","_",".",".",".",".",".",".",".",".",".",".",".",".",".",".",".",".",".",".","."],[".",".",".",".",".",".",".",".",".",".",".","_",".",".",".",".",".",".",".",".",".",".",".","_",".",".",".",".",".",".",".",".",".",".",".",".",".",".",".",".",".",".","."]],[[8,9,11,9,8,"h",9,"p",8,".",".",".",".",".",".",".",".",".",".",".",".","_",".",".",".",".",".",".",".",".",".",".",".",".","."],[".",".",".",".",".",".",".",".",".",11,9,9,11,11,"/",13,11,".",9,"/",11,"_",9,11,11,"/",13,11,".",9,"/",11,9,11,9],[".",".",".",".",".",".",".",".",".",".",".",".",".",".",".",".",".",8,".",".",".","_",".",".",".",".",".",".",8,".",".",".",".",".","."],[".",".",".",".",".",".",".",".",".",".",".",".",".",".",".",".",".",".",".",".",".","_",".",".",".",".",".",".",".",".",".",".",".",".","."],[".",".",".",".",".",".",".",".",".",".",".",".",".",".",".",".",".",".",".",".",".","_",".",".",".",".",".",".",".",".",".",".",".",".","."],[".",".",".",".",".",".",".",".",".",".",".",".",".",".",".",".",".",".",".",".",".","_",".",".",".",".",".",".",".",".",".",".",".",".","."]],[[".",".",11,".","_",".",".",11,".",".",".",11,".","_",".",".",".",".","_",".",".",11,".","_",".",".",11,".",15,"b",16,15,13,11,".",".","."],[11,13,".",13,"_",11,13,".",13,11,13,".",13,"_",11,13,11,9,"_",11,13,".",13,"_",11,13,".",13,".",".",".",".",".",".",11,"h",13],[".",".",".",".","_",".",".",".",".",".",".",".",".","_",".",".",".",".","_",".",".",".",".","_",".",".",".",".",".",".",".",".",".",".",".",".","."],[".",".",".",".","_",".",".",".",".",".",".",".",".","_",".",".",".",".","_",".",".",".",".","_",".",".",".",".",".",".",".",".",".",".",".",".","."],[".",".",".",".","_",".",".",".",".",".",".",".",".","_",".",".",".",".","_",".",".",".",".","_",".",".",".",".",".",".",".",".",".",".",".",".","."],[".",".",".",".","_",".",".",".",".",".",".",".",".","_",".",".",".",".","_",".",".",".",".","_",".",".",".",".",".",".",".",".",".",".",".",".","."]],[[".",".",".",".",11,".","_",".",".",11,"."],[9,"h",11,13,".",13,"_",11,13,".",13],[".",".",".",".",".",".","_",".",".",".","."],[".",".",".",".",".",".","_",".",".",".","."],[".",".",".",".",".",".","_",".",".",".","."],[".",".",".",".",".",".","_",".",".",".","."]]],"numberofstrings":6,"notes":["E","B","G","D","A","E","B"],"capo":0,"stringnotes":["E4","B3","G3","D3","A2","E2"],"comments":["Stave 1:","Stave 2:","Stave 3:","Stave 4:","Stave 5:","Stave 6:","Stave 7:","Stave 8:","Stave 9:","Stave 10:","Stave 11:"],"timing":[[null,"W",null,"W","W",null,"W","W","W",null,"W","W",null,"W","W",null,"W","W",null,"W","W","W",null,"W",null,"W","W",null,"W","W","W",null,"W","W",null,"W",null,"W","W",null,"W"],["W",null,"W","W","W","W",null,"W","W","W","W",null,"W","W",null,"W",null,"W","W",null,"W","W","W","W","W",null,"W","W","W","W","W",null,"W",null,"W",null,"W","W","W","W","W","W","W","W",null,"W","W","W","W","W","W"],["W","W",null,"W","W","W","W",null,"W","W","W","W","W","W","W","W","W","W","W","W","W",null,"W","W","W","W",null,"W",null,"W",null,"W","W","W",null,"W","W","W","W","W","W",null,"W"],["W",null,"W","W","W","W","W","W","W",null,"W","W"],["W","W","W","W","W","W","W","W",null,"W",null,"W","W","W","W",null,"W","W","W","W",null,"W",null,"W","W","W",null,"W","W","W","W",null,"W","W","W","W","W",null,"W"],[null,"W","W","W","W","W",null,"W",null,"W","W","W","W","W","W","W",null,"W","W","W","W",null,"W",null,"W","W","W",null,"W","W","W","W",null,"W","W","W"],["W","W","W","W",null,"W","W","W","W",null,"W","W","W","W",null,"W","W","W","W",null,"W","W","W","W",null,"W","W","W","W","W",null,"W","W","W","W","W",null,"W","W"],["W","W","W","W",null,"W","W","W","W",null,"W",null,"W","W","W","W",null,"W","W","W","W",null,"W",null,"W","W","W","W",null,"W","W","W","W",null,"W","W","W","W","W","W","W",null,"W"],["W","W","W","W","W",null,"W",null,"W","W","W","W","W","W",null,"W","W","W","W",null,"W",null,"W","W","W",null,"W","W","W","W","W","W","W","W","W"],["W","W","W","W",null,"W","W","W","W","W","W","W","W",null,"W","W","W","W",null,"W","W","W","W","W","W","W","W","W","W",null,"W","W","W","W","W",null,"W"],["W",null,"W","W","W","W",null,"W","W","W","W"]],"timingvisible":false,"tabcounter":11,"stave":10,"totalstaves":11,"instrument":"6guitar","selectedtuning":"6_standard","version":"13"}

Member for

9 months 2 weeks
Submitted by mackymusika on Mon, 2021-03-08 03:00