seven1

Chords

01234567891011121314151617181920212223
E
B
G
D
A
E
B
0 1 2 3 4 5 6 7 8 9 10 11 12 13 14 15 16 17 18 19 20 21 22 23
(/) Slide Up  (\) Slide Down  (h) Hammer On  (p) Pull Off  (b) Bend (r) Release (v) Vibrato

Stave 1:

E|-----------------------------------------------|--
B|--12b14r12p9--12b14----------------------------|--
G|---------------------11b13--11v--10v--/13--8v--|--
D|-----------------------------------------------|--
A|-----------------------------------------------|--
E|-----------------------------------------------|--

Stave 2:

E|------12-------------14----------------------12b14-----------------------|--
B|--14------14--14b17------14b16--14b---12--9---------14--10--7------------|--
G|---------------------------------------------------------------9--9b11v--|--
D|-------------------------------------------------------------------------|--
A|-------------------------------------------------------------------------|--
E|-------------------------------------------------------------------------|--

Stave 3:

E|--------------------------------------------------------16--|--
B|------17--19b21--17b19r17v--19b21r19b21--19b21--16b18v------|--
G|--18--------------------------------------------------------|--
D|------------------------------------------------------------|--
A|------------------------------------------------------------|--
E|------------------------------------------------------------|--

Stave 4:

E|--11--12--11---------11--12--11---------11--12--11-------------12---------|--
B|--------------12--9--------------12--9--------------12--12b14------12b14--|--
G|--------------------------------------------------------------------------|--
D|--------------------------------------------------------------------------|--
A|--------------------------------------------------------------------------|--
E|--------------------------------------------------------------------------|--

Stave 5:

E|--11-----12-----14-----15-----16------------19--19---------19--19---------19--19---------19--19--|--
B|--14b16--15b17--17b19--18b20--19b21--19b21----------19b21----------19b21----------19b21----------|--
G|-------------------------------------------------------------------------------------------------|--
D|-------------------------------------------------------------------------------------------------|--
A|-------------------------------------------------------------------------------------------------|--
E|-------------------------------------------------------------------------------------------------|--

Stave 6:

E|--19b21--19b21r19--19b21r19v--19--16--------------------------------------|--
B|--------------------------------------17--19b21--19b21--19b21--16--12--9--|--
G|--------------------------------------------------------------------------|--
D|--------------------------------------------------------------------------|--
A|--------------------------------------------------------------------------|--
E|--------------------------------------------------------------------------|--

Stave 7:

E|--12b14-----------------------------------------------|--
B|---------14--10--7------------------------------------|--
G|--------------------9--9b11--11b13p9--11p9------------|--
D|--------------------------------------------11p9--11--|--
A|------------------------------------------------------|--
E|------------------------------------------------------|--

							http://www.guitartabcreator.com
genre
Instruments
{"strings":[[[".",".",".",".",".",".",".",".",".",".",".",".",".",".",".",".",".",".",".",".",".","|"],[12,"b",14,"r",12,"p",9,12,"b",14,".",".",".",".",".",".",".",".",".",".",".","|"],[".",".",".",".",".",".",".",".",".",".",11,"b",13,11,"v",10,"v","/",13,8,"v","|"],[".",".",".",".",".",".",".",".",".",".",".",".",".",".",".",".",".",".",".",".",".","|"],[".",".",".",".",".",".",".",".",".",".",".",".",".",".",".",".",".",".",".",".",".","|"],[".",".",".",".",".",".",".",".",".",".",".",".",".",".",".",".",".",".",".",".",".","|"]],[[".",12,".",".",".",".",14,".",".",".",".",".","_",".",".",12,"b",14,".",".",".",".",".",".",".",".","|"],[14,".",14,14,"b",17,".",14,"b",16,14,"b","_",12,9,".",".",".",14,10,7,".",".",".",".",".","|"],[".",".",".",".",".",".",".",".",".",".",".",".","_",".",".",".",".",".",".",".",".",9,9,"b",11,"v","|"],[".",".",".",".",".",".",".",".",".",".",".",".","_",".",".",".",".",".",".",".",".",".",".",".",".",".","|"],[".",".",".",".",".",".",".",".",".",".",".",".","_",".",".",".",".",".",".",".",".",".",".",".",".",".","|"],[".",".",".",".",".",".",".",".",".",".",".",".","_",".",".",".",".",".",".",".",".",".",".",".",".",".","|"]],[[".",".",".",".",".",".",".",".",".",".",".",".",".",".",".",".",".",".",".",".",".",".",".",".",".",16,"|"],[".",17,19,"b",21,17,"b",19,"r",17,"v",19,"b",21,"r",19,"b",21,19,"b",21,16,"b",18,"v",".","|"],[18,".",".",".",".",".",".",".",".",".",".",".",".",".",".",".",".",".",".",".",".",".",".",".",".",".","|"],[".",".",".",".",".",".",".",".",".",".",".",".",".",".",".",".",".",".",".",".",".",".",".",".",".",".","|"],[".",".",".",".",".",".",".",".",".",".",".",".",".",".",".",".",".",".",".",".",".",".",".",".",".",".","|"],[".",".",".",".",".",".",".",".",".",".",".",".",".",".",".",".",".",".",".",".",".",".",".",".",".",".","|"]],[[11,12,11,".",".",11,12,11,".",".",11,12,11,".",".",".",".",12,".",".",".","|"],[".",".",".",12,9,".",".",".",12,9,".",".",".",12,12,"b",14,".",12,"b",14,"|"],[".",".",".",".",".",".",".",".",".",".",".",".",".",".",".",".",".",".",".",".",".","|"],[".",".",".",".",".",".",".",".",".",".",".",".",".",".",".",".",".",".",".",".",".","|"],[".",".",".",".",".",".",".",".",".",".",".",".",".",".",".",".",".",".",".",".",".","|"],[".",".",".",".",".",".",".",".",".",".",".",".",".",".",".",".",".",".",".",".",".","|"]],[[11,".",".",12,".",".",14,".",".",15,".",".",16,".",".",".",".",".",19,19,".",".",".",19,19,".",".",".",19,19,".",".",".",19,19,"|"],[14,"b",16,15,"b",17,17,"b",19,18,"b",20,19,"b",21,19,"b",21,".",".",19,"b",21,".",".",19,"b",21,".",".",19,"b",21,".",".","|"],[".",".",".",".",".",".",".",".",".",".",".",".",".",".",".",".",".",".",".",".",".",".",".",".",".",".",".",".",".",".",".",".",".",".",".","|"],[".",".",".",".",".",".",".",".",".",".",".",".",".",".",".",".",".",".",".",".",".",".",".",".",".",".",".",".",".",".",".",".",".",".",".","|"],[".",".",".",".",".",".",".",".",".",".",".",".",".",".",".",".",".",".",".",".",".",".",".",".",".",".",".",".",".",".",".",".",".",".",".","|"],[".",".",".",".",".",".",".",".",".",".",".",".",".",".",".",".",".",".",".",".",".",".",".",".",".",".",".",".",".",".",".",".",".",".",".","|"]],[[19,"b",21,19,"b",21,"r",19,19,"b",21,"r",19,"v",19,16,".",".",".",".",".",".",".",".",".",".",".",".",".","|"],[".",".",".",".",".",".",".",".",".",".",".",".",".",".",".",".",17,19,"b",21,19,"b",21,19,"b",21,16,12,9,"|"],[".",".",".",".",".",".",".",".",".",".",".",".",".",".",".",".",".",".",".",".",".",".",".",".",".",".",".",".",".","|"],[".",".",".",".",".",".",".",".",".",".",".",".",".",".",".",".",".",".",".",".",".",".",".",".",".",".",".",".",".","|"],[".",".",".",".",".",".",".",".",".",".",".",".",".",".",".",".",".",".",".",".",".",".",".",".",".",".",".",".",".","|"],[".",".",".",".",".",".",".",".",".",".",".",".",".",".",".",".",".",".",".",".",".",".",".",".",".",".",".",".",".","|"]],[[12,"b",14,".",".",".",".",".",".",".",".",".",".",".",".",".",".",".",".",".",".",".","|"],[".",".",".",14,10,7,".",".",".",".",".",".",".",".",".",".",".",".",".",".",".",".","|"],[".",".",".",".",".",".",9,9,"b",11,11,"b",13,"p",9,11,"p",9,".",".",".",".","|"],[".",".",".",".",".",".",".",".",".",".",".",".",".",".",".",".",".",".",11,"p",9,11,"|"],[".",".",".",".",".",".",".",".",".",".",".",".",".",".",".",".",".",".",".",".",".",".","|"],[".",".",".",".",".",".",".",".",".",".",".",".",".",".",".",".",".",".",".",".",".",".","|"]]],"numberofstrings":6,"notes":["E","B","G","D","A","E","B"],"capo":0,"stringnotes":["E4","B3","G3","D1","A2","E2"],"comments":["Stave 1:","Stave 2:","Stave 3:","Stave 4:","Stave 5:","Stave 6:","Stave 7:"],"timing":[["W",null,"W",null,"W",null,"W","W",null,"W","W",null,"W","W",null,"W",null,null,"W","W"],["W","W","W","W","W","W","W","W","W","W","W","W","W","W","W","W","W","W","W","W","W","W","W","W","W",null,"W"],["W","W","W",null,"W","W","W","W","W","W","W","W","W","W","W","W",null,"W","W",null,"W","W","W","W",null,"W"],["W","W","W","W","W","W","W","W","W","W","W","W","W","W","W",null,"W","W","W",null,"W"],["W",null,"W","W",null,"W","W",null,"W","W",null,"W","W","W","W","W",null,"W","W","W","W",null,"W","W","W","W",null,"W","W","W","W",null,"W","W","W"],["W",null,"W","W",null,"W",null,"W","W",null,"W",null,"W","W","W","W","W","W",null,"W","W",null,"W","W",null,"W","W","W","W"],["W",null,"W","W","W","W","W","W",null,"W","W",null,"W","W","W","W",null,"W","W",null,"W","W"]],"timingvisible":false,"tabcounter":23,"stave":6,"totalstaves":7,"instrument":"6guitar","selectedtuning":"6_standard","version":"13"}

Member for

1 week 5 days
Submitted by luis711 on Tue, 2020-06-30 02:57