Sound will begin in 5 seconds

Second Band Song

01234567891011121314151617181920212223
E
B
G
D
A
E
B
0 1 2 3 4 5 6 7 8 9 10 11 12 13 14 15 16 17 18 19 20 21 22 23
Song Science #1: How Pros Use 6 Chords to Write Hit Songs
(/) Slide Up  (\) Slide Down  (h) Hammer On  (p) Pull Off  (b) Bend (r) Release (v) Vibrato

Stave 1:

E|---------------------------------------------------------------------
B|---------------------------------------------------------------------
G|---------------------------------------------------------------------
D|---------------------------------------------------------------------
A|------11--------11h12p11--------11h12p11--------11h12p11-------------
E|--12------0--0------------0--0------------0--0------------0--12--11--

Stave 2:

E|------------------------------------
B|------------------------------------
G|------------------------------------
D|------------------------------------
A|------11--------11h12p11--------11--
E|--12------0--0------------0--0------

Stave 3:

E|--------------------------------------------------------
B|--------------------------------------------------------
G|--------------------------------------------------------
D|--------------------------------------------------------
A|-----7--------7h9p7--------7h9p7--------7h9p7-----------
E|--9-----0--0---------0--0---------0--0---------0--9--7--

Stave 4:

E|------------------------------
B|------------------------------
G|------------------------------
D|------------------------------
A|-----7--------7h9p7--------7--
E|--9-----0--0---------0--0-----

Stave 5:

E|--------------------------------------------------------
B|--------------------------------------------------------
G|--------------------------------------------------------
D|--------------------------------------------------------
A|-----2--------2h4p2--------2h4p2--------2h4p2-----------
E|--4-----0--0---------0--0---------0--0---------0--4--2--

Stave 6:

E|------------------------------
B|------------------------------
G|------------------------------
D|------------------------------
A|-----2--------2h4p2--------2--
E|--4-----0--0---------0--0-----

Stave 7:

E|-------------------------------------------------------------------------
B|-------------------------------------------------------------------------
G|-------------------------------------------------------------------------
D|-------------------------------------------------------------------------
A|-----11--------9--------7--------9-----11-----9-----7--------4--------2--
E|--0------0--0-----0--0-----0--0-----0------0-----0-----0--0-----0--0-----

Stave 8:

E|-------------------------------------------------------------------------
B|-------------------------------------------------------------------------
G|-------------------------------------------------------------------------
D|-------------------------------------------------------------------------
A|-----11--------9--------7--------9-----11-----9-----7--------4--------2--
E|--0------0--0-----0--0-----0--0-----0------0-----0-----0--0-----0--0-----

http://www.guitartabcreator.com
Guitar Tab Creator is intended to store guitar tab created through the tool. It currently does not support in-line text editing. Any text you place in here will be lost. If you need to comment on your tab, please use the "Tab Notes" section located below.