Sound will begin in 5 seconds

test 2 (3)

01234567891011121314151617181920212223
E
B
G
D
A
E
B
0 1 2 3 4 5 6 7 8 9 10 11 12 13 14 15 16 17 18 19 20 21 22 23
Song Science #1: How Pros Use 6 Chords to Write Hit Songs
(/) Slide Up  (\) Slide Down  (h) Hammer On  (p) Pull Off  (b) Bend (r) Release (v) Vibrato

Stave 1:

E|--15v--16--15--13-----------------------------------13--15v--18-------15--16--15------15--------------
B|-------------------16--15--13------13v--13--15--16---------------18v--------------18------18--16--18--
G|-------------------------------15---------------------------------------------------------------------
D|------------------------------------------------------------------------------------------------------
A|------------------------------------------------------------------------------------------------------
E|------------------------------------------------------------------------------------------------------

Stave 2:

E|--15----------------------------------------------13----------------------------------------------
B|------18--16--15--------------------------------------16--15--13----------------------------------
G|------------------17--15------------------------------------------15--12--------------------------
D|--------------------------17--15------------------------------------------15--13--12--------------
A|----------------------------------18--17--15------------------------------------------15--13------
E|----------------------------------------------18----------------------------------------------15--

Stave 3:

E|--11--10--------------------------------------------------------------------------15------18--15------
B|----------13--11------------------------------------------------------11--13--15------18----------18--
G|------------------12--10--------------------------------------10--12----------------------------------
D|--------------------------13--12--10------10--12--13--12--13------------------------------------------
A|--------------------------------------13--------------------------------------------------------------
E|------------------------------------------------------------------------------------------------------

Stave 4:

E|------------------------------13------15--13----------------------------------15---------------
B|--16------------------------------16----------16--13------------------------------18--16-------
G|------17----------------------------------------------12----------------------------------17v--
D|----------17----------------------------------------------13--12-------------------------------
A|--------------18--17--15------------------------------------------15--13-----------------------
E|--------------------------18----------------------------------------------15-------------------

Stave 5:

E|--15---------------15---------------15---------------|--18--16--15-------18--15--18--20--|--
B|------18--16-----------18--16-----------18--16-------|--------------16v------------------|--
G|--------------17v--------------17v--------------17v--|-----------------------------------|--
D|-----------------------------------------------------|-----------------------------------|--
A|-----------------------------------------------------|-----------------------------------|--
E|-----------------------------------------------------|-----------------------------------|--

Stave 6:

E|--15------15--18--15v--13--15--16--15--13--15--13--13h15p13-----------------------------------------
B|------18-----------------------------------------------------15p13----------------------------------
G|--------------------------------------------------------------------12------------------------------
D|------------------------------------------------------------------------12--13------12--13------13--
A|--------------------------------------------------------------------------------13----------13------
E|----------------------------------------------------------------------------------------------------

Stave 7:

E|------------------15--13--15--13-------------------------------------------------------------------
B|------15------15------------------15--13----------13v------13--16--15--13--------------------------
G|--15------12------------------------------15--12-------15------------------15--12--12--------------
D|---------------------------------------------------------------------------------------13----------
A|-------------------------------------------------------------------------------------------13------
E|-----------------------------------------------------------------------------------------------15--

Stave 8:

E|----------------------15---------------------------18v------15--16--15------------------------------
B|------------------16------16v------------------16-------18--------------18--16------16--15----------
G|----------12--15---------------15--12------15-----------------------------------17----------17--15--
D|------13-------------------------------13-----------------------------------------------------------
A|--13------------------------------------------------------------------------------------------------
E|----------------------------------------------------------------------------------------------------

Stave 9:

E|-----------------------------------------------------15--15-------------------------------------------
B|------15--16--15------15--16p15----------15--16--------------16p15------16p15------16p15------16--15--
G|--17-----------------------------15--15----------15---------------------------------------------------
D|------------------17------------------------------------------------17---------15---------13----------
A|------------------------------------------------------------------------------------------------------
E|------------------------------------------------------------------------------------------------------

Stave 10:

E|-------------------------------------------------------------------------------------------15-------
B|--13--------------13--13v------13--16--15--13------------------------------------------16------16v--
G|------15--12--15-----------15------------------15--12--12----------------------12--15---------------
D|-----------------------------------------------------------13--------------13-----------------------
A|---------------------------------------------------------------13------13---------------------------
E|-------------------------------------------------------------------15-------------------------------

Stave 11:

E|----------------------18v------15--16--15---------------
B|------------------16-------18--------------18--16-------
G|--15--12------15-----------------------------------17v--
D|----------13--------------------------------------------
A|--------------------------------------------------------
E|--------------------------------------------------------

http://www.guitartabcreator.com
Guitar Tab Creator is intended to store guitar tab created through the tool. It currently does not support in-line text editing. Any text you place in here will be lost. If you need to comment on your tab, please use the "Tab Notes" section located below.