Sound will begin in 5 seconds

test 2 (2)

01234567891011121314151617181920212223
E
B
G
D
A
E
B
0 1 2 3 4 5 6 7 8 9 10 11 12 13 14 15 16 17 18 19 20 21 22 23
Song Science #1: How Pros Use 6 Chords to Write Hit Songs
(/) Slide Up  (\) Slide Down  (h) Hammer On  (p) Pull Off  (b) Bend (r) Release (v) Vibrato

Stave 1:

E|--------------|-------------------------------------------------------------------13v--11--10------
B|--18--16------|-----------------------------------------------------------8v--11---------------13--
G|----------17--|--7--8--7------7------------------------------------7--10---------------------------
D|--------------|-----------10-----8----------7--8--7--8--10--8--10----------------------------------
A|--------------|---------------------10--10---------------------------------------------------------
E|--------------|------------------------------------------------------------------------------------

Stave 2:

E|------10v--10--11--10------10--------------------------------------------------------------------------
B|--11-------------------13------13--11--13--11--10--------------------------------------------------13--
G|-------------------------------------------------------10------10----------------------12--14--15------
D|---------------------------------------------------12------13------13--12--10------10------------------
A|-------------------------------------------------------------------------------13----------------------
E|-------------------------------------------------------------------------------------------------------

Stave 3:

E|----------------------15----------15------18--15--21--18--20--21--21b21r21--20--21--20--18--20--18--
B|------------------15------15----------15------------------------------------------------------------
G|--15--14--12--15--------------15--------------------------------------------------------------------
D|----------------------------------------------------------------------------------------------------
A|----------------------------------------------------------------------------------------------------
E|----------------------------------------------------------------------------------------------------

Stave 4:

E|--17------15p18p15\5-------------------------------------------------------------8------------------
B|------20-----------------8--------------------------------------------8--10--11-----11--10--11--10--
G|----------------------7-----7-----------------------5--------7-----7--------------------------------
D|-------------------------------8--7--8--7--5--7--8-----5--8-----8-----------------------------------
A|----------------------------------------------------------------------------------------------------
E|----------------------------------------------------------------------------------------------------

Stave 5:

E|--10v--10-------------------------------------------------------------------------------------------
B|-----------13--11--10-------------------------------------------------------------------------------
G|-----------------------12--10-----------------------------------------------------------------------
D|-------------------------------13--12--10---------------10--12--10----------10--12--13--12--10------
A|-------------------------------------------13v--10--13--------------13--10----------------------10--
E|----------------------------------------------------------------------------------------------------

Stave 6:

E|------------------------------------------------------------------------------------------------------
B|------------------------------10--11--10--------------10--11--10--------------11--13--11--10------11--
G|--------------10----------12--------------12------12--------------12------12------------------12------
D|--10--12--13------13--12----------------------12----------------------12------------------------------
A|------------------------------------------------------------------------------------------------------
E|------------------------------------------------------------------------------------------------------

Stave 7:

E|------15----------------------15--15v--13--15--16--15--13--15--13--13h15p13-------------------------
B|--15------15--11------11--15-------------------------------------------------15p13------------------
G|------------------12----------------------------------------------------------------12--------------
D|----------------------------------------------------------------------------------------12--13------
A|------------------------------------------------------------------------------------------------13--
E|----------------------------------------------------------------------------------------------------

Stave 8:

E|----------------------------------15v--13--15--13---------------------------------------------------
B|----------------------15------15-------------------15--13----------13v------13--16--15--13----------
G|------------------15------12-------------------------------15--12-------15------------------15--12--
D|--12--13------13------------------------------------------------------------------------------------
A|----------13----------------------------------------------------------------------------------------
E|----------------------------------------------------------------------------------------------------

Stave 9:

E|--------------------------------------15---------------------------18v------15--16--15--------------
B|----------------------------------16------16v------------------16-------18--------------18--16------
G|--12----------------------12--15---------------15--12------15-----------------------------------17--
D|------13--------------13-------------------------------13-------------------------------------------
A|----------13------13--------------------------------------------------------------------------------
E|--------------15------------------------------------------------------------------------------------

Stave 10:

E|--------------------------------------------------------------------15--15------------------------
B|--16p15--------------15--16--15------15--16p15----------15--16--------------16p15------16p15------
G|---------17--15--17-----------------------------15--15----------15--------------------------------
D|---------------------------------17------------------------------------------------17---------15--
A|--------------------------------------------------------------------------------------------------
E|--------------------------------------------------------------------------------------------------

Stave 11:

E|------------------------------------------------------------------------------------------------------
B|--16p15------16--15--13--------------13--13v------13--16--15--13--------------------------------------
G|-------------------------15--12--15-----------15------------------15--12--12----------------------12--
D|------------------------------------------------------------------------------13--------------13------
A|---------13-----------------------------------------------------------------------13------13----------
E|--------------------------------------------------------------------------------------15--------------

Stave 12:

E|----------15---------------------------18v------15--16--15--------------
B|------16------16v------------------16-------18--------------18--16------
G|--15---------------15--12------15-----------------------------------17--
D|---------------------------13-------------------------------------------
A|------------------------------------------------------------------------
E|------------------------------------------------------------------------

http://www.guitartabcreator.com
Guitar Tab Creator is intended to store guitar tab created through the tool. It currently does not support in-line text editing. Any text you place in here will be lost. If you need to comment on your tab, please use the "Tab Notes" section located below.