Sound will begin in 5 seconds

test 2 (1)

01234567891011121314151617181920212223
E
B
G
D
A
E
B
0 1 2 3 4 5 6 7 8 9 10 11 12 13 14 15 16 17 18 19 20 21 22 23
Song Science #1: How Pros Use 6 Chords to Write Hit Songs
(/) Slide Up  (\) Slide Down  (h) Hammer On  (p) Pull Off  (b) Bend (r) Release (v) Vibrato

Stave 1:

E|--10v----------------------8--11--10v----8v----------------------------------------------
B|---------10--8v----10--11----------------------11--10--8---------------------------------
G|----------------------------------------------------------7--10v----8--8--7--------------
D|-----------------------------------------------------------------------------10--8--10v--
A|-----------------------------------------------------------------------------------------
E|-----------------------------------------------------------------------------------------

Stave 2:

E|------------------------------------------------8-----------------10\15v--15--17--15----13--15--13--
B|---------------------------------8v--8--10--11-----11--10--8--11------------------------------------
G|-------------7----------------7---------------------------------------------------------------------
D|------8--10-----10--8------8------------------------------------------------------------------------
A|--10-------------------10---------------------------------------------------------------------------
E|----------------------------------------------------------------------------------------------------

Stave 3:

E|--10--13--10------------------------------------------------------------------------------------------
B|--------------11--10--11--13--11--10------------------------------------------------------------------
G|------------------------------------------12------------------------------------------------------10--
D|--------------------------------------12------12------10----------------------------------10--12------
A|--------------------------------------------------13------13--12--10--10--12--13--12--13--------------
E|------------------------------------------------------------------------------------------------------

Stave 4:

E|----------------------------------10--10--------------------------------------------------------------
B|------10--11--13--11--10--11--10----------13--11--10--------------------------------------------------
G|--12--------------------------------------------------12--10------------------------------------------
D|--------------------------------------------------------------13--12--10--------------10--12--10------
A|--------------------------------------------------------------------------13--10--13--------------13--
E|------------------------------------------------------------------------------------------------------

Stave 5:

E|--------------------------------------------------------------------------------------------------
B|----------------------------------------------------------10--11--10--------------10--11--10------
G|------------------------------------------10----------12--------------12------12--------------12--
D|------10--12--13--12--10------10--12--13------13--12----------------------12----------------------
A|--10----------------------10----------------------------------------------------------------------
E|--------------------------------------------------------------------------------------------------

Stave 6:

E|--------------------------------------15----------------------15--15v--13--15--16--15--13--15--13--
B|----------11--13--11--10------11--15------15--11------11--15---------------------------------------
G|------12------------------12----------------------12-----------------------------------------------
D|--12-----------------------------------------------------------------------------------------------
A|---------------------------------------------------------------------------------------------------
E|---------------------------------------------------------------------------------------------------

Stave 7:

E|--13h15p13---------------------------------------------------------15--13--15--13-------------------
B|------------15p13--------------------------------------15------15------------------15--13-----------
G|-------------------12------------------------------15------12------------------------------15--12v--
D|-----------------------12--13------12--13------13---------------------------------------------------
A|-------------------------------13----------13-------------------------------------------------------
E|----------------------------------------------------------------------------------------------------

Stave 8:

E|--------------------------------------------------------------------------15-----------------------
B|--13------13--16--15--13----------------------------------------------16------16v------------------
G|------15------------------15--12--12--12----------------------12--15---------------15--12------15--
D|------------------------------------------13--------------13-------------------------------13------
A|----------------------------------------------13------13-------------------------------------------
E|--------------------------------------------------15-----------------------------------------------

Stave 9:

E|------18v------15--16--15--------------------------------------------------------------------------
B|--16-------18--------------18--16------16--15--------------15--16--15----------16--15----------15--
G|-----------------------------------17----------17--15--17------------------17----------15--15------
D|-----------------------------------------------------------------------17--------------------------
A|---------------------------------------------------------------------------------------------------
E|---------------------------------------------------------------------------------------------------

Stave 10:

E|----------15--15------------------------------------------------------------------------------------
B|--16--------------16p15------16p15------16p15------16--15--13--------------13--13v------13--16--15--
G|------15-------------------------------------------------------15--12--15-----------15--------------
D|-------------------------17---------15---------13---------------------------------------------------
A|----------------------------------------------------------------------------------------------------
E|----------------------------------------------------------------------------------------------------

Stave 11:

E|--------------------------------------------------15---------------------------18v------15--16--15--
B|--13------------------------------------------16------16v------------------16-------18--------------
G|------15--12--12----------------------12--15---------------15--12------15---------------------------
D|------------------13--------------13-------------------------------13-------------------------------
A|----------------------13------13--------------------------------------------------------------------
E|--------------------------15------------------------------------------------------------------------

http://www.guitartabcreator.com
Guitar Tab Creator is intended to store guitar tab created through the tool. It currently does not support in-line text editing. Any text you place in here will be lost. If you need to comment on your tab, please use the "Tab Notes" section located below.