Sound will begin in 5 seconds

test 1 (3)

01234567891011121314151617181920212223
E
B
G
D
A
E
B
0 1 2 3 4 5 6 7 8 9 10 11 12 13 14 15 16 17 18 19 20 21 22 23
Song Science #1: How Pros Use 6 Chords to Write Hit Songs
(/) Slide Up  (\) Slide Down  (h) Hammer On  (p) Pull Off  (b) Bend (r) Release (v) Vibrato

Stave 1:

E|--------------------------------------------------7--10--12--14--------------17--19--------------17--19--
B|-------------------------------8--7--8-----8--10-----------------17--19--20----------17--19--20----------
G|--9------------9--7---------7-----------9----------------------------------------------------------------
D|-----9------9--------9-----------------------------------------------------------------------------------
A|--------10--------------10-------------------------------------------------------------------------------
E|---------------------------------------------------------------------------------------------------------

Stave 2:

E|--19h20p19--17------17----------------------------------------------------------------------------------
B|----------------20------20--19--17--19--17--------------17--19--17--------------------------------------
G|--------------------------------------------19--16--19--------------19--16--19--16------16--------------
D|------------------------------------------------------------------------------------19------19--17--16--
A|--------------------------------------------------------------------------------------------------------
E|--------------------------------------------------------------------------------------------------------

Stave 3:

E|-----------------------------------------------------------------------------------------------------
B|----------------------------------------------12-----13-----12-----13-----12-----13--15--13--12--13--
G|---------------------16--------------------9------9------9------9------9------9----------------------
D|-----------16h17h19------19p17p16--17--16------------------------------------------------------------
A|--19v--19--------------------------------------------------------------------------------------------
E|-----------------------------------------------------------------------------------------------------

Stave 4:

E|------12------------------------------------------------------------------------------------------14--
B|--15------15--12--13--12----------------------------------------------------------------------15------
G|--------------------------14--12--14--12--11--12------11--12--12------14------12------14--------------
D|--------------------------------------------------14--------------12------12------12------12----------
A|------------------------------------------------------------------------------------------------------
E|------------------------------------------------------------------------------------------------------

Stave 5:

E|------12--14--12----------------------------------------------12--14--12------------------------------
B|--15--------------15--12--15--12------------------------------------------15--12--15--12------12------
G|----------------------------------14--12--14--12--11------12------------------------------14------14--
D|------------------------------------------------------14----------------------------------------------
A|------------------------------------------------------------------------------------------------------
E|------------------------------------------------------------------------------------------------------

Stave 6:

E|------------------------------------------------------7-----10----------10----------10--15--14--15v--
B|-----------------------------8--7------8--------8--------8------12----------12-----------------------
G|--12--11--9------------9-----------9v-----7-------------------------12----------12-------------------
D|-------------9------9-----9------------------9-----9-------------------------------------------------
A|----------------10-----------------------------------------------------------------------------------
E|-----------------------------------------------------------------------------------------------------

Stave 7:

E|--15p14p12--17b19--19--21--19-----------------------------------------------------------
B|-------------------------------21--20--21--20--19------19-------------------------------
G|---------------------------------------------------21------21--19-----------------------
D|-------------------------------------------------------------------21--19---------------
A|---------------------------------------------------------------------------21--21--19v--
E|----------------------------------------------------------------------------------------

http://www.guitartabcreator.com
Guitar Tab Creator is intended to store guitar tab created through the tool. It currently does not support in-line text editing. Any text you place in here will be lost. If you need to comment on your tab, please use the "Tab Notes" section located below.