Sound will begin in 5 seconds

test 1 (2)

01234567891011121314151617181920212223
E
B
G
D
A
E
B
0 1 2 3 4 5 6 7 8 9 10 11 12 13 14 15 16 17 18 19 20 21 22 23
Song Science #1: How Pros Use 6 Chords to Write Hit Songs
(/) Slide Up  (\) Slide Down  (h) Hammer On  (p) Pull Off  (b) Bend (r) Release (v) Vibrato

Stave 1:

E|---------------12--15----17r15p14--12--14--12----------------------------------------------12--14--12--
B|--13v--13--15----------------------------------15--12--15--12------------------------------------------
G|---------------------------------------------------------------14--12--14--12--11------12--------------
D|-----------------------------------------------------------------------------------14------------------
A|-------------------------------------------------------------------------------------------------------
E|-------------------------------------------------------------------------------------------------------

Stave 2:

E|--------------------------------------------------------------------------------------------------------
B|--15--12--15--12------12--------------------------------------------12----------------------------------
G|------------------14------14--12--11--------------------12------12------------------12--------------12--
D|--------------------------------------14----14--12--14------14----------14------14------14------14------
A|----------------------------------------------------------------------------14--------------14----------
E|--------------------------------------------------------------------------------------------------------

Stave 3:

E|---------------------------------------------------------------------------------------------------
B|-------------------------10--7-----10--7-----10--7---------------------8p7-------8--------8--------
G|--------12--------12------------7---------7---------9------------9----------9-------7--------7-----
D|--9--9------9--9------9--------------------------------9------9-----9------------------9--------9--
A|----------------------------------------------------------10---------------------------------------
E|---------------------------------------------------------------------------------------------------

Stave 4:

E|-----7-----10----------10------10--15--14--15--------------------------------------------------
B|--8-----8------12----------12------------------15--12--15--12----------------------------------
G|-------------------12------------------------------------------14--12--12----------12----------
D|---------------------------------------------------------------------------14----------14------
A|-------------------------------------------------------------------------------14----------14--
E|-----------------------------------------------------------------------------------------------

Stave 5:

E|-------------------------17--19--------------17--19v--19--20--19--17------17--------------------------
B|--15--19--15\17--19--20----------17--19--20---------------------------20------20--19--17--19--17------
G|--------------------------------------------------------------------------------------------------19--
D|------------------------------------------------------------------------------------------------------
A|------------------------------------------------------------------------------------------------------
E|------------------------------------------------------------------------------------------------------

Stave 6:

E|----------------------------------------------------------------------------------------
B|--17--19--17------------------------------------------------------------12--------------
G|--------------19--16--19--16--14--16--14--12--11--------------------12------14--12--11--
D|--------------------------------------------------14----14--12--14----------------------
A|----------------------------------------------------------------------------------------
E|----------------------------------------------------------------------------------------

Stave 7:

E|-----------------------------------------------------12------12--14--15v--14p12--19v--
B|-----12-----13-----12-----13-----12--13--15--13--15------15---------------------------
G|--9------9------9------9------9-------------------------------------------------------
D|--------------------------------------------------------------------------------------
A|--------------------------------------------------------------------------------------
E|--------------------------------------------------------------------------------------

Stave 8:

E|--19h21p19-----------------------------------------------------------------17--19v------------------
B|------------21--20--21--20--19------19-------------------------17--19--20-----------19--------------
G|--------------------------------21------21--19------19--21v-----------------------------19----------
D|------------------------------------------------21------------------------------------------19--16--
A|----------------------------------------------------------------------------------------------------
E|----------------------------------------------------------------------------------------------------

Stave 9:

E|----------------------------------15v--19--17--15--19--20v------20--21--20--19------17v--
B|--------------------------15--------------------------------17------------------20-------
G|--------------14--16----------16---------------------------------------------------------
D|--14--16--17----------17-----------------------------------------------------------------
A|-----------------------------------------------------------------------------------------
E|-----------------------------------------------------------------------------------------

http://www.guitartabcreator.com
Guitar Tab Creator is intended to store guitar tab created through the tool. It currently does not support in-line text editing. Any text you place in here will be lost. If you need to comment on your tab, please use the "Tab Notes" section located below.