Sound will begin in 5 seconds

test 1 (1)

01234567891011121314151617181920212223
E
B
G
D
A
E
B
0 1 2 3 4 5 6 7 8 9 10 11 12 13 14 15 16 17 18 19 20 21 22 23
Song Science #1: How Pros Use 6 Chords to Write Hit Songs
(/) Slide Up  (\) Slide Down  (h) Hammer On  (p) Pull Off  (b) Bend (r) Release (v) Vibrato

Stave 1:

E|-------------------------------------------------------------------------------------------------------
B|-------------------------------8--7-------------------------------------8--7-----------------7--8--10--
G|--9------------9--7---------7--------9------------9--7h9p7---------7h9--------9--7-----7--9------------
D|-----9------9--------9------------------9------9------------9-----------------------9------------------
A|--------10--------------10-----------------10------------------10--------------------------------------
E|-------------------------------------------------------------------------------------------------------

Stave 2:

E|--7------------------------------------------------------------------------12v--12------12--14--15--14--
B|-----8/13v--15--12----------------------------12-----------------------12-----------15------------------
G|--------------------14--12--11------11h12h14------14p12p11------11h12-----------------------------------
D|--------------------------------14--------------------------14------------------------------------------
A|--------------------------------------------------------------------------------------------------------
E|--------------------------------------------------------------------------------------------------------

Stave 3:

E|--15--17--15--14--15--17--19v--19h21p19--17h19p17--15h17p15--14----------14----------14--------------
B|-----------------------------------------------------------------15----------15----------15------12--
G|---------------------------------------------------------------------14----------14----------14------
D|-----------------------------------------------------------------------------------------------------
A|-----------------------------------------------------------------------------------------------------
E|-----------------------------------------------------------------------------------------------------

Stave 4:

E|--------------------------------|---------------------------------------------12--------------
B|-------------------------12-----|-----------------------------12------------------12--12------
G|--14--12--11----------9------9--|--9------------12------9---------12--12------------------12--
D|--------------14v--9------------|-----9--9----------12-----9--------------12------------------
A|--------------------------------|-----------10------------------------------------------------
E|--------------------------------|-------------------------------------------------------------

http://www.guitartabcreator.com
Guitar Tab Creator is intended to store guitar tab created through the tool. It currently does not support in-line text editing. Any text you place in here will be lost. If you need to comment on your tab, please use the "Tab Notes" section located below.