Stratus Main Melody Billy Cobham

Chords

01234567891011121314151617181920212223
E
B
G
D
A
E
B
0 1 2 3 4 5 6 7 8 9 10 11 12 13 14 15 16 17 18 19 20 21 22 23
(/) Slide Up  (\) Slide Down  (h) Hammer On  (p) Pull Off  (b) Bend (r) Release (v) Vibrato

Stave 1:

E|----------------------------------|-----------------------
B|----------------------------------|-----------------------
G|--9b11r9--7--------------------7--|--7--6--7--6-----6-----
D|-------------9--7--9--7--9--9-----|--------------9-----9--
A|----------------------------------|-----------------------
E|----------------------------------|-----------------------

Stave 2:

E|--------------------------------|----------------------------------
B|--------------------------------|----------------------------------
G|--------------------------------|----------------------------------
D|--------------------------------|----------------------------------
A|-----5--7-----5--7-----5--7--5--|-----5--7-----5--7--7/9--7--5-----
E|--7--------7--------7-----------|--7--------7-------------------7--

Stave 3:

E|--------------------------------|--------------------12b14--12--10----------10------
B|--------------------------------|-----------------------------------12--10------12--
G|-----7--9-----7--9-----7--9--7--|-----7--9-----7--9---------------------------------
D|--9--------9--------9-----------|--9--------9---------------------------------------
A|--------------------------------|---------------------------------------------------
E|--------------------------------|---------------------------------------------------

Stave 4:

E|-------------------------------------
B|-------------------------------------
G|-------------------------------------
D|--9--9--7--7--4/6--9--6--------6--7--
A|-------------------------7--9--------
E|-------------------------------------

							http://www.guitartabcreator.com
genre
Instruments
{"strings":[[[".",".",".",".",".",".",".",".",".",".",".",".",".","|",".",".",".",".",".",".","."],[".",".",".",".",".",".",".",".",".",".",".",".",".","|",".",".",".",".",".",".","."],[9,"b",11,"r",9,7,".",".",".",".",".",".",7,"|",7,6,7,6,".",6,"."],[".",".",".",".",".",".",9,7,9,7,9,9,".","|",".",".",".",".",9,".",9],[".",".",".",".",".",".",".",".",".",".",".",".",".","|",".",".",".",".",".",".","."],[".",".",".",".",".",".",".",".",".",".",".",".",".","|",".",".",".",".",".",".","."]],[[".",".",".",".",".",".",".",".",".",".","|",".",".",".",".",".",".",".",".",".",".",".","."],[".",".",".",".",".",".",".",".",".",".","|",".",".",".",".",".",".",".",".",".",".",".","."],[".",".",".",".",".",".",".",".",".",".","|",".",".",".",".",".",".",".",".",".",".",".","."],[".",".",".",".",".",".",".",".",".",".","|",".",".",".",".",".",".",".",".",".",".",".","."],[".",5,7,".",5,7,".",5,7,5,"|",".",5,7,".",5,7,7,"/",9,7,5,"."],[7,".",".",7,".",".",7,".",".",".","|",7,".",".",7,".",".",".",".",".",".",".",7]],[[".",".",".",".",".",".",".",".",".",".","|",".",".",".",".",".",".",12,"b",14,12,10,".",".",10,"."],[".",".",".",".",".",".",".",".",".",".","|",".",".",".",".",".",".",".",".",".",".",".",12,10,".",12],[".",7,9,".",7,9,".",7,9,7,"|",".",7,9,".",7,9,".",".",".",".",".",".",".",".","."],[9,".",".",9,".",".",9,".",".",".","|",9,".",".",9,".",".",".",".",".",".",".",".",".",".","."],[".",".",".",".",".",".",".",".",".",".","|",".",".",".",".",".",".",".",".",".",".",".",".",".",".","."],[".",".",".",".",".",".",".",".",".",".","|",".",".",".",".",".",".",".",".",".",".",".",".",".",".","."]],[[".",".",".",".",".",".",".",".",".",".",".",".","."],[".",".",".",".",".",".",".",".",".",".",".",".","."],[".",".",".",".",".",".",".",".",".",".",".",".","."],[9,9,7,7,4,"/",6,9,6,".",".",6,7],[".",".",".",".",".",".",".",".",".",7,9,".","."],[".",".",".",".",".",".",".",".",".",".",".",".","."]]],"numberofstrings":6,"notes":["E","B","G","D","A","E","B"],"capo":0,"stringnotes":["E4","B3","G3","D3","A2","E2"],"comments":["Stave 1:","Stave 2:","Stave 3:","Stave 4:"],"timing":[["W",null,"W",null,"W","W","W","W","W","W","W","W","W",null,"W","W","W","W","W","W","W"],["W","W","W","W","W","W","W","W","W","W",null,"W","W","W","W","W","W","W",null,"W","W","W","W"],["W","W","W","W","W","W","W","W","W","W",null,"W","W","W","W","W","W","W",null,"W","W","W","W","W","W","W"],["W","W","W","W","W",null,"W","W","W","W","W","W","W","W"]],"timingvisible":false,"tabcounter":13,"stave":3,"totalstaves":4,"instrument":"6guitar","selectedtuning":"6_standard","version":"13"}

Member for

7 years 6 months
Submitted by LJN62 on Fri, 2020-10-23 15:08