Sound will begin in 5 seconds

First Slide Blues

01234567891011121314151617181920212223
E
B
G
D
A
E
B
0 1 2 3 4 5 6 7 8 9 10 11 12 13 14 15 16 17 18 19 20 21 22 23
Song Science #1: How Pros Use 6 Chords to Write Hit Songs
(/) Slide Up  (\) Slide Down  (h) Hammer On  (p) Pull Off  (b) Bend (r) Release (v) Vibrato

Stave 1:

G|-----------------------------------------------------------------------------------------------------
G|-----------------------------------------------------------------------------------------------------
G|-----------------------------------------------------------------------------------------------------
G|--0--0--0--0--0--0--0--0--0--0--0--0--0--0--0--0--0--0--0--0--0--3-5--5--3-5--5--0-3--0--0--0--0--0--
D|--0--0--0--2--3--2--0--0--2--0--0--2--0--0--2--3--2--0--0--2--0--3/5--5--3/5--5--0/3--0--0--2--3--2--
G|--0--0--0--0--0--0--0--0--0--0--0--0--0--0--0--0--0--0--0--0--0--3-5--5--3-5--5--0-3--0--0--0--0--0--

Stave 2:

G|-----------------------------------------------------------------------------------------------
G|-----------------------------------------------------------------------------------------------
G|-----------------------------------------------------------------------------------------------
G|--0--0--0--0--0--0--5-7--7--7--7--7--3-5--5--5--0-3--0--0--0--0--0--0--0--0--0--0--2/3--2/3--0--
D|--0--0--2--0--0--2--5/7--7--7--7--7--3/5--5--5--0/3--0--0--2--3--2--0--0--2--0------------------
G|--0--0--0--0--0--0--5-7--7--7--7--7--3-5--5--5--0-3--0--0--0--0--0--0--0--0--0------------------

Stave 3:

G|--------------------------------------------------------------------------------------------------
G|--------------------------------------------------------------------------------------------------
G|--------------------------------------------------------------------------------------------------
G|--0--0--0--0--0--2/3--2/3--0--0--0--0--0--0--2/3--2/3--0--0--0--0--0--0--3-5--5--5--------5--------
D|--0--2--0--3------------------0--2--0--3------------------0--2--0--3--0--3/5--------5--------5-----
G|--0--0--0--0------------------0--0--0--0------------------0--0--0--0--0--3-5-----------5--------0--

Stave 4:

G|---------------------------------------------------------------------------------------------------------
G|---------------------------------------------------------------------------------------------------------
G|---------------------------------------------------------------------------------------------------------
G|----3-5--5--5-----5-----3/5--0--0--0--0--0--0--2/3--2/3--0--0--0--0--0--0--5-7--7--7--7--3-5--5--0-3--0--
D|----3/5--------5-----5----------0--2--0--3------------------0--2--0--3--2--5/7--7--7--7--3/5--5--0/3--0--
G|----3-5-------------------------0--0--0--0------------------0--0--0--0--0--5-7--7--7--7--3-5--5--0-3--0--

Stave 5:

G|-----------------------------------------------------------------------------------------------------
G|-----------------------------------------------------------------------------------------------------
G|-----------------------------------------------------------------------------------------------------
G|----0--0--0--0--0--10-12--12--12--12--0--0--0--0--0--0--12--12--12--12--12-0--0--0--0--0--0--12--12--
D|----0--2--3--2--0--10/12--12--12--12--0--0--2--3--2--0--12--12--12--12--12\0--0--2--3--2--0--12--12--
G|----0--0--0--0--0--10-12--12--12--12--0--0--0--0--0--0--12--12--12--12--12-0--0--0--0--0--0--12--12--

Stave 6:

G|------------------------------------------------------------------------------------------------------
G|------------------------------------------------------------------------------------------------------
G|------------------------------------------------------------------------------------------------------
G|----12--12--12-----0--3-5--5--3-5--5--0-3--0--0--0--0--2/3--2/3--0--0--0--0--5-7--7--7--7--7--3-5--5--
D|----12--12--12\12--0--3/5--5--3/5--5--0/3--0--2--3------------------0--2--0--5/7--7--7--7--7--3/5--5--
G|----12--12--12-----0--3-5--5--3-5--5--0-3--0--0--0------------------0--0--0--5-7--7--7--7--7--3-5--5--

Stave 7:

G|---------------------------------
G|---------------------------------
G|---------------------------------
G|--0-3--0--0--0--0--0--0--7-12-0--
D|--0/3--0--0--2--3--2--0--7/12\0--
G|--0-3--0--0--0--0--0--0--7-12-0--

http://www.guitartabcreator.com
Guitar Tab Creator is intended to store guitar tab created through the tool. It currently does not support in-line text editing. Any text you place in here will be lost. If you need to comment on your tab, please use the "Tab Notes" section located below.